Oops, an error
Loading. Please wait.

Un Mareo Que Me Ha Dao Tab

25 views 1 this week
no commentswrite comment
1 2 3 4 5
3 more votes to show rating
add to favorites
launch autoscroll
font size
0
reset
how to read this tab
guitar tuner
Autoscroll
slow
fast
+/-
esc
set tempo
stop
Help us to improve Ultimate-Guitar.com Take our survey!
×
INTRO:
            C         A              C         A
e|--------------------------------------------------------|
B|--------------------------------------------------------|
G|-----------------0----5-5-4-2-0-2---------0-------------|
D|-------------0-2----------------------0-2---------------|
A|-3-2-0-2----------------------------------------3-2-0-2-|
E|--------------------------------------------------------

ESTROFA:
   C   A            C   A        C   A             C  A
e|------------------------------------------------------------|
B|------------------------------------------------------------|
G|-------5-4-2-0-2--------5-4-0--------5-4-4-2-0-2------5-4-0-|
D|------------------------------------------------------------|
A|------------------------------------------------------------|
E|------------------------------------------------------------|

entre estrofa i estrofa se toka lo mismo ke en el principio

C                    A
Hoy me voy a desahogar,
C                     A
vomitaré sobre sus coches
C                     A
y mis entrañas limpiar
C                    A
de tantisimos reproches

C                   A
No me gusta levantar
C                     A
mi cuerpo para ke otros
C                    A
bajen tanto mi moral
C                        A
ke me estoy volviendo loko

F                  G
pero prefieren pensar
                     F
ke mi vida esta perdida
                     G
y yo no pretendo luchar
                     C     A
por kausa tan aburrida
F                          G
respiro bien si estoy fumao
                           F
no soy feliz en sus trabajos
                         G
ni se reir por las mañanas
                         C           A
ke puedo hacer si estoy kansado

e|--------------------------------------------------------------|
B|--------------------------------------------------------------|
G|-10-9-10-9-9-9--9-10-9-7-5---5--5-7-9-10-12-14-12-9-10-9-10-9-|
D|---------------------------7----------------------------------|
A|--------------------------------------------------------------|
E|--------------------------------------------------------------|

C                   G
un mareo ke me a dao
                     C
un mareo me ha avisado
                      G
dejate ya ese trabajo
                     C     A
vale ya de estar debajo
                     C     A
vale ya de estar debajo
Suggest correction
Give kudos to tab author, rate the tab!
1 2 3 4 5
comments
print report bad tab
guest
You may want to rate the tab now too:
select rating
Wanna post a correction for this tab? Suggest correction