Oops, an error
Loading. Please wait.

Veneno tab

version 2
version 2

Whole song

Interactive

88 views 1 this week
no commentswrite comment
1 2 3 4 5
3 more votes to show rating
add to favorites
×
Save as Personal and add changes to this tab that will be seen only by you. Learn more ›
×
You can save this tab as Personal to edit and correct it or add notes. All changes will be seen only by you. Learn more »
launch autoscroll
font size
0
reset
how to read this tab
guitar tuner
edit
Autoscroll
slow
fast
+/-
esc
set tempo
stop
POR PIPERRO - CHILE

Otro temaso del eukz
puta ojala les guste, creo ke me kedo OK
ya menos palabras y a tocar.
(esta demas decir ke escuchen el tema antes  )

intro:

  Bm                 G
e-------------------------------------
B----------3--------------------------
G--------4---4-------------4----------
D------4-----------------5---5-------- Arpegio x2
A----2----------2-0----5---------0----
E--------------------3---------3------

entra un punteo simple, mientras suena el arpegio base
unas 4 veces

e------9-7-----------9-7--11-------12---9p7---7-----
B----x-------9-7----------------------------9-------
G--x--------------------------------------------7/9-
D---------------------------------------------------
A---------------------------------------------------
E---------------------------------------------------

Verso:( solo el Bajo)
Bm              G
no me perguntes qué hice entonces
cuando la noche me protegia
no me perguntes qué pretendia
cuando el dolor lo perseguia

"Puente"
e---------------------------------------------------------
B---------------------------------------------------------
G--4-4----------------------------------------------------
D--4-4------------5-5------------4-4----------------------
A--2-2--5-4h5p4-0-5-5--5-4h5p4-0-2-2--5-4h5p4-0-5----5-4--
E-----------------3-3---------------------------3--3------

Verso 2:
Bm           G
la lucidez   sigue conmigo
maldita sea  como un castigo
Abrir los ojos me hace daño
B5          G5
maldita sea voy ha serrarlooos

(ahora se toca el puente , pero mas rapido)
e---------------------------------------------------------
B---------------------------------------------------------
G--4-4----------------------------------------------------
D--4-4------------5-5------------4-4----------------------
A--2-2--5-4h5p4-0-5-5--5-4h5p4-0-2-2--5-4h5p4-0-5----5-4--
E-----------------3-3---------------------------3--3------
B5             G5           >>> Se hace un Slide de B5 a G
lleno mi cuerpo dia tras dia        en el cambio de acorde
lleno mi cuerpo de porquerias        sobre la 6ª cuerda
B5             G5             >>> se toca normal el cambio
y reventar!!!  es lo que busco
y reventar!!!  es lo ke buscoooo

despues del verso biene otra vez el puente
e---------------------------------------------------------
B---------------------------------------------------------
G--4-4----------------------------------------------------
D--4-4------------5-5------------4-4----------------------
A--2-2--5-4h5p4-0-5-5--5-4h5p4-0-2-2--5-4h5p4-0-5----5-4--
E-----------------3-3---------------------------3--3------

B5             G5
no creo en el amor malgastas tu calor
no creo en el amor malgastas tu caloor
y reventar!!!  es lo que busco
y reventar!!!  es lo ke buscoooo

Punte 2
e------------------------------------
B------------------------------------
G------------------------------------
D-------------------------4-5-4------
A-5-4-5--5-4-5--5-4-5---7-------7-5--
E------------------------------------

B5            G5
no me despirtes si estoy soñando
no me entretengas si estoy viajando
no me des nada que no te pida
no me des nada si no es veneno

no me des nada!!! si no es veneno
no me des nada!!! si no es veneno
no me des nada!!! si no es veneno
no me des nada (entra el riff final)
Riff final
e------------------------------------------------------//
B------------------------------------------------------//
G------------------------------------------------------//
D---------------------------------4-------------4---4--//
A---5-5-x-x-5-5-x-x-5-5-x-x-5-5-0-2---5-4h5p4-0-2---2--//
E---3-3-x-x-3-3-x-x-3-3-x-x-3-3------------------------//fin

            
            
Suggest correction
Creating personal tab
Creating personal tab
You can edit any tab online and save it as your Personal.

You can edit, replace or remove any tab part or add personal notes – all changes will be seen only by you.

Personal tabs can be accessed anytime from any device, even offline.
Learn more »
Give kudos to tab author, rate the tab!
1 2 3 4 5
comments
print report bad tab
guest
Wanna post a correction for this tab? Suggest correction