Oops, an error
Loading. Please wait.

Veneno Bass Tab

version 1
version 1

Whole song

Interactive

58 views 1 this week
no commentswrite comment
1 2 3 4 5
3 more votes to show rating
add to favorites
launch autoscroll
font size
0
reset
guitar tuner
Autoscroll
slow
fast
+/-
esc
set tempo
stop
Help us to improve Ultimate-Guitar.com Take our survey!
×
pelaobajo6@

[1]Intro guitarra
[2]Segunda guitarra


 [3]Bajo
 4/4
|----------------|----------------|
|----------------|------------2---|
|2-----2---------|2-----2---------|
|--------3-----3-|--------3-------|

[4] primer verso, igual que [3]

[5] "..no me preguntes
|----------------|----------------|
|----------------|----------------|
|2-----2---------|2-----2---------|
|--------3-----3-|--------3-------|

[6] guitarra que da el paso al segundo verso, el bajo va asi
|----------------|----------------|
|------------2---|------------2---|
|2-----2---------|2--2--2---------|
|--------3------3|--------3------X|
                     *                           *: va
                                      despues del
                                      platillo de la bateria
                                      que marca la entrada del
                                      compas

[7] segundo verso ".. la lucidez
|----------------|----------------|
|----------------|------------2---|
|2---------------|2-----2---------|
|--------3-----3-|--------3-------|

[8]abrir los ojos....
|----------------|-s--------------|
|----------------|-h--maldita-----|
|2-----2---------|2h--------------|
|--------3-----3-|-h-------3333333|

[9]"..voy a cerrarlos
|----------------|----------------|
|----------------|----------------|
|22222222--------|22222222--------|
|--------33333333|--------33333333|

[10] lleno mi cuerpo ....

|----------------|----------------|
|----------------|----------------|
|22222222--------|22222222--------|
|--------33333333|--------33333333|


[11]"..y rebentar
|----------------|----------------|
|----------------|----------------|
|----------------|----------------|
|2-------3-------|2--------3------|


[12] (sin canto)
|----------------|----------------|
|----------------|----------------|
|2--0--2-5-2-0---|---2-----0--2-2-|
|----------------|3-----3---------|

[12.1] (sin canto)
|----------------|----------------|
|----------------|----------------|
|2--0--2-5-2-0---|---2-----0--2-2-|
|----------------|3-----3---------|


[13] No creo en el amor....
|----------------|----------------|
|----------------|----------------|
|22222222--------|22222222--------|
|--------33333333|--------33333333|


[14] "..y rebentar...........
|----------------|----------------|
|----------------|----------------|
|----------------|----------------|
|2-------3-------|2--------3------|


[15] (solo guitarra)
|----------------|----------------|
|----------------|----------------|
|2--0--2-5-2-0---|---2-----0--2-2-|
|----------------|3-----3---------|

[15.1]
|----------------|----------------|
|----------------|----------------|
|2--0--2-5-2-0---|---2-----0--2-2-|
|----------------|3-----3---------|

[15.2]
|----------------|----------------|
|----------------|----------------|
|2--0--2-5-2-0---|---2-----0--2-2-|
|----------------|3-----3---------|

[15.3]
|----------------|----------------|
|----------------|----------------|
|2--0--2-5-2-0---|---2-----0--2-2-|
|----------------|3-----3---------|

[16] No me despiertes...
|----------------|----------------|
|----------------|----------------|
|22222222--------|22222222--------|
|--------33333333|--------33333333|

[16.1] No me des nada que no te pida.....
|----------------|----------------|
|----------------|----------------|
|22222222--------|22222222--------|
|--------33333333|--------33333333|

[16.2] No me des nada si no es veneno (1).....
|----------------|----------------|
|----------------|----------------|
|22222222--------|22222222--------|
|--------33333333|--------33333333|

[17] No me des nada si no es veneno (fin).....
|----------------|----------s-s---|-s-s----s-s----s-s--------s---|
|----------------|----------h-h---|-h-h----h-h----h-h--------h---|
|22222222--------|22222222--h-h---|-h-h----h-h----h-h---2----h-2/|
|--------33333333|---------3h3h32-|3h3h32-3h3h32-3h3h32------h---|
Suggest correction
Give kudos to tab author, rate the tab!
1 2 3 4 5
comments
print report bad tab
guest
You may want to rate the tab now too:
select rating
Wanna post a correction for this tab? Suggest correction