Oops, an error
Loading. Please wait.

Yo Podria Ser Tu Perro Tab

19 views 1 this week
no commentswrite comment
1 2 3 4 5
3 more votes to show rating
add to favorites
launch autoscroll
font size
0
reset
how to read this tab
guitar tuner
×
Best way to learn
"Yo Podria Ser Tu Perro"
Autoscroll
slow
fast
+/-
esc
set tempo
stop
Aki les dejo este temaso versionadon por los del ultimo,la version original
es de The Stooges, el ultimo uso la de Iggy Pop, aun ke cambiaron la letra
es un gran tema... Jueguen con las 8ª de la guitarra para hacerlo sona
igual y todo con quintas...

¨Vamos a hacer una version de Iggy Pop... Yo Quiero Ser Tu Perro...¨
¨Cual quier parecido con la realidad es de puta madre...¨

Intro:  G  F# E


G  F# E               G  F# E
Lo contaron en el bar,
y no deje de alucinar,
luego en mi casa,
al recordar,
me tuve que masturbar.

G     F#     E
Yo podría ser tu perro. X3
D B A F#  G...        E
              Por que no????

G  F# E


G  F# E                 G  F# E
Cuando fumo en el portal,
juntos os veo pasar,
yo quisiera ese collar,
ser tu perro y nada máaaaas  wawawa.


G     F#     E
Yo podría ser tu perro. X3
D B A F#  G...        E
              Por que no???? Por que no waaaa!!!!!
SOLO:

|------------------------------------------------------------|
|------------------------------------------------------------|
|------------------------------------------------------------|
|-----------------------------7--9-7-9-7-9-7-9-7-9-7-9-7--7-9|
|-9-7-9-7-9-7-9-7-9-7-9-7--7-9-------------------------------|
|------------------------------------------------------------|

|------------------------------------------------------|
|---------------------------7-8-7----------------------|
|-7-9b-9b-9b-9b-9b-9b-9b-99-------9-7-------7--7-------|
|-------------------------------------9-7-9------------|
|------------------------------------------------------|
|------------------------------------------------------|

|------------------------------------------------------------------|
|----------------------------------------12-13p12--15b15b15b15b15b-|
|7-9p7/14b-14b14b14b14b14b14b-14b14b14b14b-------------------------|
|------------------------------------------------------------------|
|----------Aqui-no-se-cuantos-bend-son-muchos----------------------|
|---------pero-le-sacan-el-ritmos-uds.-----------------------------|

|---------------------------------------------------------------|
|---------------------------------------------------------------|
|-12-13-13------------------------------------------------------|
|----------14-12----------12-12---12h14p12-14b-dejar-sonando----|
|----------------14-12-14---------------------------------------|
|---------------------------------------------------------------|

Ahora esta fig. suena miestra se canta

|-------------------------------|
|-------------------------------|
|----------12---11---9-9-9------|
|-------------------------------|
|-10-10-10----9----7------------|
|-------------------------------|

G    F#    E                   Fig.
Tu y tu perro al hospital,
se le hizo el nudo al animal,
todos ríen en el bar,
yo solo quiero ladrar.

G     F#     E
Yo podría ser tu perro. X3
D B A F#  G...        E
              Por que no????

Bueno la letra de esta cancion esta inspirada en una loca que atendia
un bar donde solia ir la banda a beber, y la loca tenia un San Bernardo
de ahi viene todo...
Bueno en el solo no puse cuantas veces se repiten las notas porque
son muchas para contarlas, y los bending no son tan subidos...
Bueno saludo y suerte, ahora no tienen escusas para no tocar el tema..
Suggest correction
Give kudos to tab author, rate the tab!
1 2 3 4 5
comments
print report bad tab
guest
You may want to rate the tab now too:
select rating
Wanna post a correction for this tab? Suggest correction