Oops, an error
Loading. Please wait.

Dulce Hoja Bass

16 views 1 this week
no commentswrite comment
1 2 3 4 5
3 more votes to show rating
add to favorites
launch autoscroll
font size
0
reset
guitar tuner
×
Best way to learn
"Dulce Hoja"
Autoscroll
slow
fast
+/-
esc
set tempo
stop
  INTRO/VERSO***
     G|-----------------------------------------
     D|-----------------------------------------
     A|-0-0--5-4-3-33/4-4--------------------
     E|-----------------------------------------

       Ohh siii!!!   ((00:45)) 
     
     G|------------------|---------------------------          
     D|-------------------|------2-0--------0--------
     A|0-0---3-5/7-5-0--|-----------2-0-2----2-----     x2 y luego se combina con la variante
     E|-----3-------------|---------------------------


     OTRA VEZ VERSO

     OTRA VEZ LO DE 'Ohh si nena¡¡¡!!

     Puentesillo antes de la parte rapidita ((2:11))
        
     G|-----------------------------------
     D|-----------------------------------
     A|----------------------------------
     E|--5---5---5---5---5-------------
     


      Parte rapidita  ((2:15))

     G|--------------------------------------------------------
     D|--------------------------------------------------------
     A|---------------------------------------------------------   X7  veces ((creo)) escuchen la rola 
     E|7777777777/9999999999/777777777/9999999999
     
     
     PARTESILLA FINAL DE LO RAPIDIN ((2:34))

     G|-----------------------------------
     D|-----------------------------------
     A-----------------------------------
     E|-7-9--7-9--7-9--7-9--7-9~-----

          
     DESPUES DEL SOLO DE LIRA 

     G|-----------------------------------
     D|-----------------------------------
     A------2-0-------------------------
     E|--0--------------------------------
   
     
      VERSO*****

      OTRA VEZ LO DE Oh si nena¡¡¡!!

      VERSO***
Suggest correction
Give kudos to tab author, rate the tab!
1 2 3 4 5
comments
print report bad tab
guest
You may want to rate the tab now too:
select rating
Wanna post a correction for this tab? Suggest correction