Oops, an error
Loading. Please wait.

Dulce Hoja Tab

16 views 6 this week
no commentswrite comment
1 2 3 4 5
3 more votes to show rating
add to favorites
launch autoscroll
font size
0
reset
how to read this tab
guitar tuner
Autoscroll
slow
fast
+/-
esc
set tempo
stop
Help us to improve Ultimate-Guitar.com Take our survey!
×
Author/Artist: Las Ultrasonicas
Title: Dulce hoja
Album: Fui una adolescente terrosatanica
Transcribed by: Rodolfo Vergara Hernandez
Email: arc_arsenault@

Intro/verso:
e|------------------------| 
b|------------------------|  
g|------------------------|  intro x4
d|---------7-6-5--5-5-6-7-|  verso x12
a|-7-7-(5)-5-4-3--3-3-4-5-|
E|-5-5-(3)----------------|  
 
oh, si!       
                                                                       
Riff 1:
e|---------------------|
b|---------------------|
g|---------------------|  
d|-----------5-5/9-7-2-|  
a|-7-7-7-7-5-3-3/7-5-0-|
E|-5-5-5-5-3-----------| x4
                                              
verso 2:
e|---------------------|
b|---------------------| aqui se utiliza una distorcion
g|-------7-6-5-5-5-6-7-| bien agresiva, o un efecto 
d|-7-7-5---------------| llamado pitch.
a|---------------------|
E|---------------------| 

Otra vez se toca el riff 1
y despues:
                                                 
Riff 2:
e|---------------------|
b|---------------------|
g|---------------------| Entre cada strum
d|---------------------| va la bateria.
a|-7-----7-----7-----7-|
E|-5-----5-----5-----5-|
                                                                    
Riff 3:                                      improvisa sobre: 
e|-------------|-------------|-----------|-----------------------|
b|-------------|-------------|-----------|-14-13-12--------------|
g|-------------|----11-12-11-|-14~-------|----------13-12--------|
d|-9-11-9-11-9-|-12----------|-----------|----------------13-12--|
a|-9-9--9-9--9-|-------------|-----------|-----------------------|
E|-7-9--7-9--7-|-------------|-----------|-----------------------| (x4)
 El struming     ^  ^  ^  ^     ^           creo que cada quien debe 
 (rasgueo) es    aprox. x 20   despues      imaginarse su pequeño solo. 
 algo rapido.                  de las 20                                 
                               asi acaba. 
  

Post riff 3: G A G (x3)

despues:

Intro/verso
Riff 1
Intro/verso
Riff 1 hasta el final.

Eso es todo. Cualquier duda mandenme un mail y ya.
Suggest correction
Give kudos to tab author, rate the tab!
1 2 3 4 5
comments
print report bad tab
guest
You may want to rate the tab now too:
select rating
Wanna post a correction for this tab? Suggest correction