Oops, an error
Loading. Please wait.

El Espacio Exterior Bass

17 views 1 this week
no commentswrite comment
1 2 3 4 5
3 more votes to show rating
add to favorites
×
Save as Personal and add changes to this tab that will be seen only by you. Learn more ›
×
You can save this tab as Personal to edit and correct it or add notes. All changes will be seen only by you. Learn more »
save as personal
new!
launch autoscroll
font size
0
reset
guitar tuner
Autoscroll
slow
fast
+/-
esc
set tempo
stop
        VISITANOS---------------
      


         INTRO

    G|----------------------------
    D|--0-0-0------0------------    INTRO MAS 2 VECES MAS 
    A|---------3-0----3-0-3-3-3
    E|---------------------------

       LUEGO VA ESTO

    G|--0-0-0----0-------------------------------------------------------------0-0-0-------------------------------
    D|--------3-0---3-0-3-3-3----0-0-0------0---------------0-0-0------------------3-0----0-0-0----------------
    A|-------------------------------------3-0----3-0-3-3-3-----------3-0----------------------------3-0-0-3~~~~    2 VECES
    E|-----------------------------------------------------------------------------------------------------------------

   

    G|-----------|                         G|-0----------|            
    D|--0--------|                        D|---3~-0-3---|
    A|----3~-0-3-|     X 4  Y LUEGO    A|------------|       X 4 , Y LUEGO EL PRIMERO OTRA VEX 4
    E|------------|                         E|------------|


   G|-------------------------------------------------
   D|-0-0-0-0-0-0--0-0-0-0------------------------   CUENTEN BIEN LAS VECES DE CADA PISADA EN LA ROLA
   A|--------------------------3-3-3-3-3-3-3-3-3-3
   E|------------------------------------------------


   LUEGO   INTRO  X 3 VECES
   LUEGO LO QUE VA ABAJO X 3 VECES
 
   ESE COMO SOLITO ES ASI:

   G----------------------------------0-0------00------------------------------------------0-0-0------------------------
   D|-0-0----00----0-0-----00----------3--------3-----0-0----00-------0-0-0-------------------3-0----0-00-0-------
   A|-----3-----3--------3------3----------------------------3-----3-------------3-0-----------------------------3-0-03
   E|----------------------------------------------------------------------------------------------------------------------


    G|-----------|                         G|-0----------|            
    D|--0--------|                        D|---3~-0-3---|
    A|----3~-0-3-|     X 4  Y LUEGO    A|------------|       X 4 , Y LUEGO EL PRIMERO OTRA VEX 4
    E|------------|                         E|------------|


   G|-------------------------------------------------
   D|-0-0-0-0-0-0--0-0-0-0------------------------   CUENTEN BIEN LAS VECES DE CADA PISADA EN LA ROLA
   A|--------------------------3-3-3-3-3-3-3-3-3-3
   E|------------------------------------------------


   Y PA REMATAR ES ESTO

  G|-----------------------
  D|-0--------------------
  A|---3-0-3-------------  SE HACE RAPIDIN
  E|----------------------


 PS AY TA EL TAB ESCUCHEN LA ROLA PA ACOMODAR TODO Y PA QUE vEAN BIEN CUANTAS VECES ES CADA COSA
 VA PUES CHIDO!!!!!   


 ESTE SIGNITO ~ SIGNIFICA ALARGAR UN POCO LA PISADA

 CUALQUIER COSA AL MEILSITO DE ARRIBA
Suggest correction
Give kudos to tab author, rate the tab!
1 2 3 4 5
comments
print report bad tab
guest
Wanna post a correction for this tab? Suggest correction