Oops, an error
Loading. Please wait.

El Rock Nació Conmigo Tab

30 views 1 this week
no commentswrite comment
1 2 3 4 5
3 more votes to show rating
add to favorites
launch autoscroll
font size
0
reset
how to read this tab
guitar tuner
Autoscroll
slow
fast
+/-
esc
set tempo
stop
Help us to improve Ultimate-Guitar.com Take our survey!
×
 INTRO:
e[-------
B[-------
G[-------
D[-77557-
A[-77557-
E[-55335-
 CUANDO YO NACI LA TIERRA TEMBLO
e[-------
B[-------
G[-------
D[-77557-
A[-77557-
E[-55335-
 Y EL DIA EN NOCHE SE CONVIRTIO
e[-------
B[-------
G[-------
D[-77557-
A[-77557-
E[-55335-
 UNA TORMENTA SE DESATO
e[-------
B[-------
G[-77557-
D[-77557-
A[-55335-
E[-------
 Y EL MUNDO ENTERO SE PARALIZO
e[-------
B[-------
G[-------
D[-77557-
A[-77557-
E[-55335-
 EL OCEANO SE DESBORDO Y UNA LLUVIA DE FUEGO DEL CIELO CALLO
e[---------------------------------------------
B[---------------------------------------------
G[-9-------------------------7-----------------
D[-9-------------------------7-----------------
A[-7-------------------------5-----------------
E[---------------------------------------------

e[-------
B[-------
G[-------
D[-77557-
A[-77557-
E[-55335-
 CUANDO YO NACI LA TIERRA RUGIO
e[-------
B[-------
G[-------
D[-77557-
A[-77557-
E[-55335-
 Y EL VIEJO VOLCAN EXPLOTO
e[-------
B[-------
G[-------
D[-77557-
A[-77557-
E[-55335-
 UN HURACAN NOS AZOTO
e[-------
B[-------
G[-77557-
D[-77557-
A[-55335-
E[-------
 Y TODO EL CIELO SE OSCURECIO
e[-------
B[-------
G[-------
D[-77557-
A[-77557-
E[-55335-
 LA MONTAÑA SE ESTREMECIO Y TODA LA NOCHE RELAMPAGUEO
e[-----------------------------------------
B[-----------------------------------------
G[-9---------------------7----------------
D[-9---------------------7-----------------
A[-7---------------------5-----------------
E[-----------------------------------------

 PORqUE EL ROCK NACIO CONMIGO

e[--------------------------
B[--------------------------
G[--------------------------       X2
D[----------7---/10----/5/7-
A[----------7---/10----/5/7-
E[----------5---/8-----/3/5-
 EL ROCK NACIO CONMIGO
e[--------------------------
B[--------------------------
G[----------7---/10----/5/7-
D[----------7---/10----/5/7-
A[----------5---/8-----/3/5-
E[--------------------------
 EL ROCK NACIO CONMIGO
e[--------------------------
B[--------------------------
G[--------------------------
D[----------7---/10----/5/7-
A[----------7---/10----/5/7-
E[----------5---/8-----/3/5-

e[--------------------
B[--------------------
G[-9----7-------------
D[-9-x8-7-x8-7----5---
A[-7----5----7-x9-5-6-
E[-----------5----3---

la luna cambio, la tierra temblo,el cielo cayo nacio el rockanroll...

e[----------------
B[----------------
G[----------------   x14
D[-----7----/10/7-
A[-p.m-7-x6-/10/7-
E[-----5----/8-/5-


e[-------------------------
B[-------------------------
G[-------77557----9----7---
D[-77557-77557-x4-9-x8-7-x8
A[-77557-55335----7----5---
E[-55335-------------------

                                                  conmigo a nacido

e[------------------------------------------------------------------
B[------------------------------------------------------------------
G[-------------77557----------9----7--------------------------------
D[-77557-77557-77557-77557-x2-9-x8-7-x8-77557----7----------------7-
A[-77557-77557-55335-77557----7----5----77557-x3-7----------------7-
E[-55335-55335-------55335--------------55335----5----------------5-


/    = Slide
P.M. = Palm muted
xx   = las veces que sea necesario
Suggest correction
Give kudos to tab author, rate the tab!
1 2 3 4 5
comments
print report bad tab
guest
You may want to rate the tab now too:
select rating
Wanna post a correction for this tab? Suggest correction