Oops, an error
Loading. Please wait.

Monstruo Verde Bass

280 views 1 this week
no commentswrite comment
1 2 3 4 5
3 more votes to show rating
add to favorites
launch autoscroll
font size
0
reset
guitar tuner
×
Best way to learn
"Monstruo Verde"
Autoscroll
slow
fast
+/-
esc
set tempo
stop
Intro
G---------------------------------------------------------------------
D------------------------------------------------0--0-0-3-2-0--0-0-2-3
A--0--0-0-3-2-0--0-0-2-3--0--0-0-3-2-0--0-0-2-3-----------------------
E---------------------------------------------------------------------

G-----------------------------------------------------------------
D-----------------------------------------------------------------
A--0--0-0-3-2-0--0-0-2-3-----------------0--0-0-3-2-0-2/12-12vvvv-
E------------------------0--0-0-3-3-2-0---------------------------

wow surge de la laguna....

G---------------------------------------------------------------------
D------------------------------------------------0--0-0-3-2-0--0-0-2-3
A--0--0-0-3-2-0--0-0-2-3--0--0-0-3-2-0--0-0-2-3-----------------------
E---------------------------------------------------------------------

G-----------------------------------------------------------------
D-----------------------------------------------------------------
A--0--0-0-3-2-0--0-0-2-3-----------------0--0-0-3-2-0-2/12-12vvvv-
E------------------------0--0-0-3-3-2-0---------------------------

baila monstruo....

G----------      G----------      G----------     G-----------------
D----------      D--0-0-2-3-      D----------     D-----------------
A--0-0-2-3-      A----------      A--0-0-2-3-     A-----------------
E---------- x4   E---------- x4   E---------- x3  E--0--0-0-3-3-2-0-


G-----------------------
D-----------------------
A--0--0-0-3-2-0--0-0-2-3
E-----------------------

el monstruo dice la gente...

G---------------------------------------------------------------------
D------------------------------------------------0--0-0-3-2-0--0-0-2-3
A--0--0-0-3-2-0--0-0-2-3--0--0-0-3-2-0--0-0-2-3-----------------------
E---------------------------------------------------------------------

G-----------------------------------------------------------------
D-----------------------------------------------------------------
A--0--0-0-3-2-0--0-0-2-3-----------------0--0-0-3-2-0-2/12-12vvvv-
E------------------------0--0-0-3-3-2-0---------------------------

baila monstruo....

G----------      G----------      G----------     G-----------------
D----------      D--0-0-2-3-      D----------     D-----------------
A--0-0-2-3-      A----------      A--0-0-2-3-     A-----------------
E---------- x4   E---------- x4   E---------- x3  E--0--0-0-3-3-2-0-

G-----------      G-----------      G------------
D-----------      D--0-0-2-3-3      D------------
A--0-0-2-3-3      A-----------      A--0-0-2-3-3-
E----------- x2   E----------- x2   E------------ x2

G--2/12----
D--2/12----
A----------
E----------


G---------------------------------------------------------------------
D------------------------------------------------0--0-0-3-2-0--0-0-2-3
A--0--0-0-3-2-0--0-0-2-3--0--0-0-3-2-0--0-0-2-3-----------------------
E---------------------------------------------------------------------

G-----------------------------------------------------------------
D-----------------------------------------------------------------
A--0--0-0-3-2-0--0-0-2-3-----------------0--0-0-3-2-0-2/12-12vvvv-
E------------------------0--0-0-3-3-2-0---------------------------


esta rola es ddikda
en special a mi mami monik
la quiero muxo y  a leticia
la adoro
Suggest correction
Give kudos to tab author, rate the tab!
1 2 3 4 5
comments
print report bad tab
guest
You may want to rate the tab now too:
select rating
Wanna post a correction for this tab? Suggest correction