Oops, an error
Loading. Please wait.

Monstruo Verde Tab

version 1
version 1

Whole song

50 views 1 this week
no commentswrite comment
1 2 3 4 5
3 more votes to show rating
add to favorites
launch autoscroll
font size
0
reset
how to read this tab
guitar tuner
Autoscroll
slow
fast
+/-
esc
set tempo
stop
Help us to improve Ultimate-Guitar.com Take our survey!
×
Alejandro S.M.L.

e|--------------------------------------------
B|--------------------------------------------
G|--------------------------------------------
D|--------------------------------------------
A|-0-0-0-3-2-0--0-0-2h3-----------------------
E|--------------------------------------------

e|--------------------------------------------
B|--------------------------------------------
G|--------------------------------------------
D|--------------------------------------------
A|-0-0-0-3-2-0--0-0-2h3-----------------------
E|--------------------------------------------

e|--------------------------------------------
B|--------------------------------------------
G|--------------------------------------------
D|-0-0-0-3-2-0--0-0-2h3-----------------------
A|--------------------------------------------
E|--------------------------------------------


e|--------------------------------------------
B|--------------------------------------------
G|--------------------------------------------
D|--------------------------------------------
A|-0-0-0-3-2-0--0-0-2h3-----------------------
E|--------------------------------------------


e|--------------------------------------------
B|--------------------------------------------
G|--------------------------------------------
D|--------------------------------------------
A|--------------------------------------------
E|-0-0-0-3-2-0--------------------------------


e|--------------------------------------------
B|--------------------------------------------
G|--------------------------------------------
D|--------------------------------------------
A|-0-0-0-3-2-0--0-0-0-0-----------------------
E|--------------------------------------------


(aqui empiesa a cantar, y se repite lo de arriba)

guuuuuuuuuuuuuuuuuuuuaaaaaaaayyyyyyy¡¡¡¡¡

(antes del coro va esto)


e|--------------------------------------------
B|--------------------------------------------
G|--------------------------------------------
D|------------2-7-7-7-------------------------
A|-0-0-0-0-0----------------------------------
E|--------------------------------------------

(coro)

baila......

e|--------------------------------------------
B|--------------------------------------------
G|--------------------------------------------
D|--------------------------------------------
A|-0-0-3-3-0-0-3-3-0-0-3-3-0-0-3-3------------
E|--------------------------------------------

e|--------------------------------------------
B|--------------------------------------------
G|--------------------------------------------
D|-0-0-3-3-0-0-3-3-0-0-3-3-0-0-3-3------------
A|--------------------------------------------
E|--------------------------------------------

e|--------------------------------------------
B|--------------------------------------------
G|--------------------------------------------
D|--------------------------------------------
A|-0-0-3-3-0-0-3-3-0-0-3-3-0-0-3-3------------
E|--------------------------------------------

e|--------------------------------------------
B|--------------------------------------------
G|--------------------------------------------
D|--------------------------------------------
A|--------------------------------------------
E|-0-0-3-3-0-0-3-3-3-0------------------------


e|--------------------------------------------
B|--------------------------------------------
G|--------------------------------------------
D|------------2-7-7-7-------------------------
A|-0-0-0-0-0----------------------------------
E|--------------------------------------------


riff

e|--------------------------------------------
B|--------------------------------------------
G|--------------------------------------------
D|-------2-0----------------------------------
A|-0-0-3----3---------------------------------
E|--------------------------------------------

e|--------------------------------------------
B|--------------------------------------------
G|--------------------------------------------
D|-------2-0----------------------------------
A|-0-0-3----3---------------------------------
E|--------------------------------------------

e|--------------------------------------------
B|--------------------------------------------
G|------2-0-----------------------------------
D|-0-0-3---3----------------------------------
A|--------------------------------------------
E|--------------------------------------------

e|--------------------------------------------
B|--------------------------------------------
G|------2-0-----------------------------------
D|-0-0-3---3----------------------------------
A|--------------------------------------------
E|--------------------------------------------

e|--------------------------------------------
B|--8-8-8-8-8-8-8-8-8-8-----------------------
G|--9-9-9-9-9-9-9-9-9-9-----------------------
D|--9-9-9-9-9-9-9-9-9-9-----------------------
A|--7-7-7-7-7-7-7-7-7-7-----------------------
E|--------------------------------------------

en si se repite algunas cosas de la cancion
esta super sencilla esta cancion 
y termina en esto

e|--------------------------------------------
B|--------------------------------------------
G|--------------------------------------------
D|--------------------------------------------
A|-0-0-0-0-0-0-0-0-0--------------------------
E|--------------------------------------------

vive el rock
Suggest correction
Give kudos to tab author, rate the tab!
1 2 3 4 5
comments
print report bad tab
guest
You may want to rate the tab now too:
select rating
Wanna post a correction for this tab? Suggest correction