Oops, an error
Loading. Please wait.

Monstruo Verde Tab

version 2
version 2

Whole song

22 views 1 this week
no commentswrite comment
1 2 3 4 5
3 more votes to show rating
add to favorites
launch autoscroll
font size
0
reset
how to read this tab
guitar tuner
×
Best way to learn
"Monstruo Verde"
Autoscroll
slow
fast
+/-
esc
set tempo
stop
Ahi les va la  version correcta, la mera mera petatera.

Intro - Verso
con Wah

--------------------------------------------------------
--------------------------------------------------------
--------------------------------------------------------
-----------------------------0-0-0-3-2-0-0-0-3h2h3h2h3h2
-0-0-0-3-2-0-0-0-3h2h3h2h3h2----------------------------
--------------------------------------------------------
          
--------------------------------------------------------
--------------------------------------------------------
--------------------------------------------------------
--------------------------------------------------------
--------------------------------------------------------
--0-0-0-3-2-0-0-0-0-0-0-0-------------------------------


este es un pequeño puente
--------------------------------------------------------
--------------------------------------------------------
--------------------------------------------------------
--------------------------------------------------------
------0-0-0.3-2-/12-12-12--------------------------------
--------------------------------------------------------


Coro
----------------------------------------------------------
----------------------------------------------------------
----------------------------------------------------------
---------------------0-0-2-3---0-0-2-3--------------------
-0-0-2-3---0-0-2-3----------------------------------------
----------------------------------------0-0-33-0-0-----0000


Este es la otra parte con 
----------------------------------------------------------555555-
----------------------------------------------------------555555-
----------------------------------------------------------555555-
-------------------------------0-0-2-3-2-0---0-0-2-3-2-0--555555-
-0-0-2-3-2-0---0-0-2-3-2-0---------------------------------------
-----------------------------------------------------------------


Adecuen un poco los detalles que no especifique. Creo que esta chida. 
Califiquenla cabrones.

Si ve esto, un saludo a mi fantasia Jenny bombo.
Suggest correction
Give kudos to tab author, rate the tab!
1 2 3 4 5
comments
print report bad tab
guest
You may want to rate the tab now too:
select rating
Wanna post a correction for this tab? Suggest correction