Oops, an error
Loading. Please wait.

Que Grocero Bass Tab

49 views 1 this week
no commentswrite comment
1 2 3 4 5
3 more votes to show rating
add to favorites
launch autoscroll
font size
0
reset
guitar tuner
×
Best way to learn
"Que Grocero"
Autoscroll
slow
fast
+/-
esc
set tempo
stop
        
VERSO  / VARIACION:CUANDO 'DICEN QUE GROCERO'
G|-----------------|---------------------------------------------
D|-----------------|----------------------------------------------
A|-0-00-0--33------|---2--0-00-0-3-3-0-00-0-2--0-00-0-----
E|-----------------|----------------------------------------------


 VALES MADRE  VALES VERGA¡¡¡¡!!! 

G|-----------------------------------------
D|-----------------------------------------
A|---2-0--2-0--2-0--2-0---2--------------
E|-----------------------------------------

VERSO

SONIDILLO ULTRASONICO MAGICO MUSICAL

G|------------------------------------------------------------------------
D|------------------------0--1-1-0-----------------1-1-1-0-0-0---------
A|----0-3-0-3-0---0-3------------3---0-3-0-3-0--------------3-3-3-0      LA BULBO LO HACE 2 VECES MAS QUE ALI-TA
E|------------------------------------------------------------------------

VERSO
      
LO DE 'VALES MADRE'
      
VERSO
      
SONIDILLO ULTRASONICO **COMICO** MAGICO MUSICAL MEJORADO PA FINALIZAR 

G|-----------------------------------------------------------------------------------------------------------------------------------------------------------
D|------------------------0--1-1-0-----------------1-1-1-0-0-0--------------------------------0--1-1-0-------------------1-1-1-0-0-0-------------1-1-1-0-0-0--
A|----0-3-0-3-0---0-3------------3---0-3-0-3-0--------------3-3-3-0----0-3-0-3-0---0-3------------3---0-3-0-3-0------------------3-3-3-0 --------------3-3-3-0  
E|----------------------------------------------------------------------------------------------------------------------------------------------------------
Suggest correction
Give kudos to tab author, rate the tab!
1 2 3 4 5
comments
print report bad tab
guest
You may want to rate the tab now too:
select rating
Wanna post a correction for this tab? Suggest correction