Oops, an error
Loading. Please wait.

Que Grocero Tab

version 1
version 1

Whole song

16 views 1 this week
no commentswrite comment
1 2 3 4 5
3 more votes to show rating
add to favorites
launch autoscroll
font size
0
reset
how to read this tab
guitar tuner
×
Best way to learn
"Que Grocero"
Autoscroll
slow
fast
+/-
esc
set tempo
stop
e-------------------------------------------------------------| 
B-------------------------------------------------------------| 
G-------------------------------------------------------------| 
D---------------------------------------------------------5/7-| 
A-0--3--5--5b--5---3--5--3-------0--3--5--5b--5---3--5--3-----| 
E---------------------------3/5-------------------------------|


e---------------------------------------------------------------| 
B---------------------------------------------------------------| 
G---------------------------------------------------------------| 
D-----------------------------------------------------------5/7-| 
A-0--3--5--5/6--6--5-5--3-5-3------0--3--5--5/6-6-5-5-3-5-3-----| 
E------------------------------3/5------------------------------|

        pm............
e----------------------| 
B----------------------| 
G----------------------| 
D----------------------| 
A-3-3------------------| 
E-----5-5--5-5-5-5-5-5-|


e--------5-| 
B--------5-| 
G--------6-| 
D-5-5----7-| 
A-3-3--7-7-| 
E------5-5-|

e-------------------------------------------------------------| 
B-------------------------------------------------------------| 
G-------------------------------------------------------------| 
D---------------------------------------------------------5/7-| 
A-0--3--5--5b--5---3--5--3-------0--3--5--5b--5---3--5--3-----| 
E---------------------------3/5-------------------------------|


e-------------------------------------| 
B-------------------------------------| 
G-------------------------------------| 
D-------------------------------------| 
A---3---3-------3-5-5b-5-3----3---3---| 
E-5---5---5---5-------------5---5---5-|  


e-------------------------| 
B-------------------------| 
G-------------------------| 
D-------------------------| 
A-6-6-6--5-5-5--3-3-3--0--| 
E-------------------------|

                         --
e-----------------------/-------------------| 
B----------------------/--------------------| 
G---5---5-------5-7-7b/-7-7-7-5-----5---5---| 
D-7---7---7---7-------------------7---7---7-| 
A-------------------------------------------| 
E-------------------------------------------|


e-------------------------| 
B-------------------------| 
G--8-8-8--7-7-7--5-5-5----| 
D-----------------------7-| 
A-------------------------| 
E-------------------------|

solo                                                               
e-----------------------------------------------------------------------------------| 
B-------------------------------------------7b--------------------------------------| 
G-5-7-7b---7b-7b---5~~~------5-7-7b--5-7-5--7b---7b--7b--7b~~~~---7b--7-5~~~------5-| 
D--------------------------7--------------------------------------------------7-7---| 
A-----------------------------------------------------------------------------------| 
E-----------------------------------------------------------------------------------|

                              fdbk                                                      
e-----------------5/---0---(0)---------12NH------------------------| 
B-7b--------------5/---0---(0)---------12NH-------11---------------| 
G-7b--7~~--5-7-5------------------------------14------14-----------| 
D------------------------------------------------------------------| 
A------------------------------------------------------------------| 
E------------------------------------------------------------------|


e-------------------------------------------------------------| 
B-------------------------------------------------------------| 
G-------------------------------------------------------------| 
D---------------------------------------------------------5/7-| 
A-0--3--5--5b--5---3--5--3-------0--3--5--5b--5---3--5--3-----| 
E---------------------------3/5-------------------------------|


e---------------------------------------------------------------| 
B---------------------------------------------------------------| 
G---------------------------------------------------------------| 
D-----------------------------------------------------------5/7-| 
A-0--3--5--5/6--6--5-5--3-5-3------0--3--5--5/6-6-5-5-3-5-3-----| 
E------------------------------3/5------------------------------|

        pm............
e----------------------| 
B----------------------| 
G----------------------| 
D----------------------| 
A-3-3------------------| 
E-----5-5--5-5-5-5-5-5-|


e--------5-| 
B--------5-| 
G--------6-| 
D-5-5----7-| 
A-3-3--7-7-| 
E------5-5-|

                                                 -
e-----------------------------------------------/-----------| 
B----------------------------------------------/------------| 
G---------------------------------------------/-------------| 
D--------------------------------------------/----------5/7-| 
A-0--3--5--5b--5---3--5--3-------0--3--5--5b/--5--3-5-3-----| 
E---------------------------3/5-----------------------------|

e------------------------------------------------------------| 
B------------------------------------------------------------| 
G------------------------------------------------------------| 
D------------------------------------------------------------| 
A---3---3-------3-5-5b-5-3----3---3----5b-5-5b-5-3-3-3h5p3---| 
E-5---5---5---5-------------5---5---5----------------------5-|
 
                         --
e-----------------------/-------------------| 
B----------------------/--------------------| 
G---5---5-------5-7-7b/-7-7-7-5-----5---5---| 
D-7---7---7---7-------------------7---7---7-| 
A-------------------------------------------| 
E-------------------------------------------|


e-------------------------| 
B-------------------------| 
G--8-8-8--7-7-7--5-5-5----| 
D-----------------------7-| 
A-------------------------| 
E-------------------------|

e-------------------------| 
B-------------------------| 
G--8-8-8--7-7-7--5-5-5----| 
D-----------------------7-| 
A-------------------------| 
E-------------------------|

e----------------------------------------------| 
B----------------------------------------------| 
G--8-8-8--7-7-7--5-5-5--5h7p5----------------6-| 
D------------------------------7~~~----------7-| 
A--------------------------------------------7-| 
E--------------------------------------------5-|

inche video mas maniako ke la erga, pero esta bien fregon, te deja babeando y con ganas de
no se ke. ke bueno porke tenia rato sin ver un video asi de chingon
Suggest correction
Give kudos to tab author, rate the tab!
1 2 3 4 5
comments
print report bad tab
guest
You may want to rate the tab now too:
select rating
Wanna post a correction for this tab? Suggest correction