Oops, an error
Loading. Please wait.

Vaquero Galactico Tab

35 views 1 this week
no commentswrite comment
1 2 3 4 5
3 more votes to show rating
add to favorites
launch autoscroll
font size
0
reset
how to read this tab
guitar tuner
×
Best way to learn
"Vaquero Galactico"
Autoscroll
slow
fast
+/-
esc
set tempo
stop
e --------------------------------------------------
B -------------------------------------------------
G -------------------------------------------------
D -----0-2-0-------0-2-0-------0-2-0-------0-2-0---
A -0-3-------3-0-3-------3-0-3-------3-0-3-------3-
E -------------------------------------------------

e -------------------------------------------------
B -------------------------------------------------
G -----0-2-0-------0-2-0---------------------------
D -0-3-------3-0-3-------3-----0-2-0-------0-2-0---
A -------------------------0-3-------3-0-3-------3-
E -------------------------------------------------

e --------------------------
B --------------------------
G --------------------------
D 5-5-7-7-----0-2-0---0-----
A 3-3-5-5-0-3-------3-----0-
E ----------------------3---
Suggest correction
Give kudos to tab author, rate the tab!
1 2 3 4 5
comments
print report bad tab
guest
You may want to rate the tab now too:
select rating
Wanna post a correction for this tab? Suggest correction