Oops, an error
Loading. Please wait.

Vente En Mi Boca Bass Tab

36 views 1 this week
no commentswrite comment
1 2 3 4 5
3 more votes to show rating
add to favorites
launch autoscroll
font size
0
reset
guitar tuner
×
Best way to learn
"Vente En Mi Boca"
Autoscroll
slow
fast
+/-
esc
set tempo
stop
Intro: Entra el bajeo sin guitarra

x1
G|---------------------------------
D|---------------------------------
A|---------------------------------
E|-0--0--5--5--7--7--5--7--5--0----

x7
G|---------------------------------
D|---------------------------------
A|---------------------------------
E|-000-555-777-5-7-5-7-0-----------

x2
G|---------------------------------
D|---------------------------------
A|-0000-5555-7777-5-7-5-7----------
E|---------------------------------

x2
G|---------------------------------
D|---------------------------------
A|---------------------------------
E|-000-555-777-5-7-5-7-0-----------

x2
G|----------------------------------------
D|----------------------------------------
A|----------------------------------------
E|-0000-7777-5555-0000-3333-5555-7777-----

x4
G|---------------------------------
D|---------------------------------
A|---------------------------------
E|-000-555-777-5-7-5-7-0-----------

x2
G|---------------------------------
D|---------------------------------
A|-000-555-777-5-7-5-7-0-----------
E|---------------------------------

x2
G|----------------------------------------
D|----------------------------------------
A|----------------------------------------
E|-0000-7777-5555-0000-3333-5555-7777-----

final:

x4
G|---------------------------------
D|---------------------------------
A|---------------------------------
E|-000-3333-5555-3-5-3-5-0---------


Hay que tocarla con el ritmo de la canción,
no es la tablatura correcta
pero suena casi igual.

De: enrique [e&e]
commnt: te amooo erika ers lo mejor de mi vida uu!!
Suggest correction
Give kudos to tab author, rate the tab!
1 2 3 4 5
comments
print report bad tab
guest
You may want to rate the tab now too:
select rating
Wanna post a correction for this tab? Suggest correction