Oops, an error
Loading. Please wait.

Lobo-Hombre En París Bass

version 1
version 1

Whole song

411 views 6 this week
no commentswrite comment
1 2 3 4 5
3 more votes to show rating
add to favorites
launch autoscroll
font size
0
reset
guitar tuner
×
Best way to learn
"Lobo-Hombre En París"
Autoscroll
slow
fast
+/-
esc
set tempo
stop
Primero enpiesa el teclado y tu enpiesas en el (00:10)

G:-----------------------------------
D:-----------------------------------
A:----------------4-4-4-4-4-4-4-4-4--
E:-5-55-55-555-4-5-------------------

G:-----------------------------------
D:----------------------------6-4----
A:----------------4-4-4-4-4-4--------
E:-5-55-55-555-4-5-------------------

G:-----------------------------------
D:----------------------------4-4----
A:----------------4-4-4-4-4-4--------
E:-5-55-55-555-4-5-------------------

G:-----------------------------------
D:------------------------6/7-7-6-7--
A:----------------4-4-4-4------------
E:-5-55-55-555-4-5-------------------

G:-----------------------------------
D:------------------------4-6/7-6h7--
A:----------------4-4-4-4------------ x(2)
E:-5-55-55-555-4-5-------------------

G:-----------------------------------
D:-----------------------------------
A:----------------4-4-4-4-4-4-4-4-4--
E:-5-55-55-555-4-5-------------------

Luego cambia a un puente en el (00:56)
G:--------------------------------------------------------------------------
D:---------------2-------------------4--------------------------------------
A:-2-2-2-2-2-2-4---4-2-4-4-4-4-4-4-7---7-4-2-2-2-2-2-3-2-3-2-------4/7-7-7-7
E:-----------------------------------------------------------1-1-1----------

G:-----------------------------------
D:------------------------6/7-7-6-7--
A:----------------4-4-4-4------------
E:-5-55-55-555-4-5-------------------

G:-----------------------------------
D:----------------------------6-4----
A:----------------4-4-4-4-4-4--------
E:-5-55-55-555-4-5-------------------

G:-----------------------------------
D:------------------------6/7-7-6-7--
A:----------------4-4-4-4------------
E:-5-55-55-555-4-5-------------------

G:-----------------------------------
D:-----------------------------------
A:----------------4-4-4-4-4-4-4-4-4--
E:-5-55-55-555-4-5-------------------

Denuevo canbia en el (1:36)
G:--------------------------------------------------------------------------
D:---------------2-------------------4--------------------------------------
A:-2-2-2-2-2-2-4---4-2-4-4-4-4-4-4-7---7-4-2-2-2-2-2-3-2-3-2-------4/7-7-7-7
E:-----------------------------------------------------------1-1-1----------

G:-----------------------------------
D:------------------------4-6/7-6h7--
A:----------------4-4-4-4------------
E:-5-55-55-555-4-5-------------------

G:-----------------------------------
D:----------------------------6-4----
A:----------------4-4-4-4-4-4-------- x(2)
E:-5-55-55-555-4-5-------------------

G:-----------------------------------
D:-----------------------------------
A:----------------4-4-4-4-4-4-4-4-4--
E:-5-55-55-555-4-5-------------------

Otavez en el (2:15)
G:--------------------------------------------------------------------------
D:---------------2-------------------4--------------------------------------
A:-2-2-2-2-2-2-4---4-2-4-4-4-4-4-4-7---7-4-2-2-2-2-2-3-2-3-2-------4/7-7-7-7
E:-----------------------------------------------------------1-1-1----------

G:-----------------------------------
D:------------------------6/7-7-6-7--
A:----------------4-4-4-4------------
E:-5-55-55-555-4-5-------------------

G:-----------------------------------
D:----------------------------6-4----
A:----------------4-4-4-4-4-4--------
E:-5-55-55-555-4-5-------------------

G:-----------------------------------
D:------------------------4-6/7-6h7--
A:----------------4-4-4-4------------
E:-5-55-55-555-4-5-------------------

G:-----------------------------------
D:-----------------------------------
A:----------------4-4-4-4-4-4-4-4-4--
E:-5-55-55-555-4-5-------------------

Y por ultima vez en (2:54)
G:--------------------------------------------------------------------------
D:---------------2-------------------4--------------------------------------
A:-2-2-2-2-2-2-4---4-2-4-4-4-4-4-4-7---7-4-2-2-2-2-2-3-2-3-2-------4/7-7-7-7
E:-----------------------------------------------------------1-1-1----------

G:-----------------------------------
D:------------------------4-6/7-6h7--
A:----------------4-4-4-4------------
E:-5-55-55-555-4-5-------------------

G:-----------------------------------
D:-----------------------------------
A:----------------4-4-4-4-4-4-4-4-4--
E:-5-55-55-555-4-5-------------------

G:-----------------------------------
D:----------------------------6-4----
A:----------------4-4-4-4-4-4--------
E:-5-55-55-555-4-5-------------------

Esto se repite desde el (3:27) hasta que termina
G:-----------------------------------
D:------------------------4-6/7-6h7--
A:----------------4-4-4-4------------
E:-5-55-55-555-4-5-------------------

Esto es todo se despide el poncho y un saludo a toda la bada (loba, pez,
chivo, gonzo, pelos,chispi,koruco,tripa,chino,gaby,diana,fabiola y su hermana)

Dudas y correcciones a arinmk@
Suggest correction
Give kudos to tab author, rate the tab!
1 2 3 4 5
comments
print report bad tab
guest
You may want to rate the tab now too:
select rating
Wanna post a correction for this tab? Suggest correction