Oops, an error
Loading. Please wait.

Vivir Al Este Del Edén Bass

13 views 1 this week
no commentswrite comment
1 2 3 4 5
3 more votes to show rating
add to favorites
launch autoscroll
font size
0
reset
guitar tuner
×
Best way to learn
"Vivir Al Este Del Edén"
Autoscroll
slow
fast
+/-
esc
set tempo
stop
Intro

G  ------------------------------------------
D  ------------------------------------------
A  ----------------5*--------5~ --/12--------
E  ---3~ ---3/5--------5~ -------------------


G  ----------------------------------------
D  ----------------------------------------
A  ------------4-4~ ---5-5~ ---7-7-7*------ (×2)
E   ---5-5~ -------------------------------


      Verso
G  -------------------------------------------
D  -------------------------------------------
A  ------------7-5-4~ -4~ --5~ -5~ --7-7-7*--- (×2)
E  ---5~ -5~ ---------------------------------


      Estribillo
G  ----------------------------------------------
D  ---------------------------4-3----------------
A  ------------4--4-4~ ---5--------5--8-7-------- (×2)
E  ---5--5-5~ --------------------------------5--


/ Slide up   Arrastrar de grave a agudo
~ Vibrato    Dejar vibrar la cuerda
* Stop String  Parar la cuerda


SaLe cHavOs, pAreN la oReja y cHekenSeN eN dóNde va kAda Riff
para kE le hEcHeN su EstiLaTzo,
 kOmeNtaRios a mi koRreO
Suggest correction
Give kudos to tab author, rate the tab!
1 2 3 4 5
comments
print report bad tab
guest
You may want to rate the tab now too:
select rating
Wanna post a correction for this tab? Suggest correction