Oops, an error
Loading. Please wait.

Caminando Voy Tab

11 views 1 this week
no commentswrite comment
1 2 3 4 5
3 more votes to show rating
add to favorites
launch autoscroll
font size
0
reset
how to read this tab
guitar tuner
×
Best way to learn
"Caminando Voy"
Autoscroll
slow
fast
+/-
esc
set tempo
stop
Intro
                      
e|------------------------12-------12----|
B|----12-------12------14----14-14----14-|
G|-14----14-14----14---------------------|

                     
e|----14-------14--------16----16-14-12-10-|
B|-15----15-15----15--17----17-17-15-14-12-|
G|-----------------------------------------|

   A                         C#m
e|-----------------------------12-------12----12----|
B|----12-------12----12-----14----14-14----14----14-|
G|-14----14-14----14----14--------------------------|

   D                         E
e|----14-------14----14--------16--------16-14-12-10-|
B|-15----15-15----15----15--17----17-17--17-15-14-12-|
G|---------------------------------------------------|


   A                         C#m
e|-----------------------------12-------12----12----|
B|----12-------12----12-----14----14-14----14----14-|
G|-14----14-14----14----14--------------------------|

   D                         E
e|----14-------14----14--------16--------16-14-12-10-|
B|-15----15-15----15----15--17----17-17--17-15-14-12-|
G|---------------------------------------------------|

     A            C#m
Caminando voy y solo estoy
      D        E
Sin ti, por ti.
       A                C#m
Eres primer error en mi corazón
     D        E
Adios, me voy.

      A                C#m
Hoy me alejo de ti me voy de aqui
      D        E
Sin ti, por ti.
      A                      C#m
No he podido encontrar en que pude fallarte
    D    E
A ti, así.

      A                C#m
No se cómo pasó ni por qué terminó
     D         E 
No sé, tal vez.
      A                C#m
Fue mi inseguridad o fue tu libertad
        D      E
De ayer, no sé.

       A                C#m
Pero aquí estoy así llorando por tí
   D   
Por eso es que yo digo 
      E
Que mejor me voy de aqui
              A   C#m   D   E
Me voy de aqui.

         A                     C#m 
Pero te juro y te prometo que ya no regresaré
       D                         E
Ya no vuelvo a molestarte ni siquiera volverte a ver
          A                            C#m
Sin ti yo seguiré viviendo, por amor no me moriré
          D                        E
Por amor nadie se muere y yo te aseguro que estaré bien
          
Estaré bien.

   A                         C#m
e|-----------------------------12-------12----12----|
B|----12-------12----12-----14----14-14----14----14-|
G|-14----14-14----14----14--------------------------|

   D                         E
e|----14-------14----14--------16--------16-14-12-10-|
B|-15----15-15----15----15--17----17-17--17-15-14-12-|
G|---------------------------------------------------|

   A                         C#m
e|-----------------------------12-------12----12----|
B|----12-------12----12-----14----14-14----14----14-|
G|-14----14-14----14----14--------------------------|

   D                         E
e|----14-------14----14--------16--------16-14-12-10-|
B|-15----15-15----15----15--17----17-17--17-15-14-12-|
G|---------------------------------------------------|

        A               C#m
Sé que fácil no es quizás me moriré
       D       E
Tal vez, no sé.
       A                  C#m  
Prefiero eso en verdad a tu infidelidad
       D         E
De amar, bye bye.

       A           C#m
La vida es así y yo debo seguir
     D 
Por eso es que yo digo
      E
Que mejor me voy de aqui
             A   C#m   D   E
Me voy de aqui.

         A                     C#m 
Pero te juro y te prometo que ya no regresaré
       D                         E
Ya no vuelvo a molestarte ni siquiera volverte a ver
          A                            C#m
Sin ti yo seguiré viviendo, por amor no me moriré
          D                        E
Por amor nadie se muere y yo te aseguro que estaré bien
          A
Estaré bien.
   C#m
Muy bien.
   D
Muy bien.
   E
Muy bien.
          
Estaré bien.

   A                         C#m
e|-----------------------------12-------12----12----|
B|----12-------12----12-----14----14-14----14----14-|
G|-14----14-14----14----14--------------------------|

   D                         E
e|----14-------14----14--------16--------16-14-12-10-|
B|-15----15-15----15----15--17----17-17--17-15-14-12-|
G|---------------------------------------------------|

   A                         C#m
e|-----------------------------12-------12----12----|
B|----12-------12----12-----14----14-14----14----14-|
G|-14----14-14----14----14--------------------------|

   D                         E
e|----14-------14----14--------16--------16-14-12-10-|
B|-15----15-15----15----15--17----17-17--17-15-14-12-|
G|---------------------------------------------------|

Adios
Suggest correction
Give kudos to tab author, rate the tab!
1 2 3 4 5
comments
print report bad tab
guest
You may want to rate the tab now too:
select rating
Wanna post a correction for this tab? Suggest correction