Oops, an error
Loading. Please wait.

Eso No Nos Detendrá Chords

11 views 1 this week
no commentswrite comment
1 2 3 4 5
3 more votes to show rating
add to favorites
launch autoscroll
font size
0
reset
transpose
0
reset
simplify chords
display chords
guitar tuner
Autoscroll
slow
fast
+/-
esc
set tempo
stop
Help us to improve Ultimate-Guitar.com Take our survey!
×
Si se puede apollar lo de colombia. PUNK.


INTRO:
   F5      C#5          F5      C#5     G#5      C#5
E|-----------------|  |------------------------------------|
B|-----------------|  |------------------------------------|
G|---------6-6-6-6-|  |---------6-6-6-6--------------------|
D|-4-4-4-4-6-6-6-6-|  |-4-4-4-4-6-6-6-6-6-6-6-6-11-11-11-11| X2
A|-4-4-4-4-4-4-4-4-|  |-4-4-4-4-4-4-4-4-6-6-6-6-11-11-11-11|
E|-2-2-2-2---------|  |-2-2-2-2---------4-4-4-4-9--9--9--9-|


F5         C#5
Es una forma de vida
G#5                C#5
Que hicimos y hacemos realidad
F5                   C#5
no nos supongamos en ese plan amor
G#5                  C#5
Ya que saca algo si esta toda
F5                   C#5
nos golpiando vamos olvidando
G#5             C#5
con ideas esforzando
F5                            C#5
y si los recursos lo desean eso no nos detendra


Coro
F5        C#5
Eso no nos detendra
G#5         C#5
Eso no nos detendra
F5      C#5     G#5      C#5
F5      C#5     G#5      C#5

Intermedio

  F5     C#5     G#
E|------------------------------------|
B|------------------------------------|
G|---------6-6-6-6--------------------|
D|-4-4-4-4-6-6-6-6-6-6-6-6-11-11-11-11| X2
A|-4-4-4-4-4-4-4-4-6-6-6-6-11-11-11-11|
E|-2-2-2-2---------4-4-4-4-9--9--9--9-|

F5      C#5
Ya vaciles y acrilica
G#             C#5
y mucha màs destructiva
F5              C#5
Eso no, lo nuestro es amor
G#5         C#5
Hay estoy sin amar
F5           C#5
El motivo es seguir
G#5               C#5
Cielos los mismas del cenar
F5                        C#5
y si esto es tu idea eso no nos detendra


Coro
F5        C#5
Eso no nos detendra
G#         C#5
Eso no nos detendra


Intermedio final

  F5     C#5     G#
E|------------------------------------|
B|------------------------------------|
G|---------6-6-6-6--------------------|
D|-4-4-4-4-6-6-6-6-6-6-6-6-11-11-11-11| X2
A|-4-4-4-4-4-4-4-4-6-6-6-6-11-11-11-11|
E|-2-2-2-2---------4-4-4-4-9--9--9--9-|


la letra tiene unos pequeños errores
pero los acordes estan bièn formulados
ruffuz666@
gracias a Diego q hizo esto posible.
Suggest correction
Give kudos to tab author, rate the tab!
1 2 3 4 5
comments
print report bad tab
guest
You may want to rate the tab now too:
select rating
Wanna post a correction for this tab? Suggest correction