Oops, an error
Loading. Please wait.

Un Fín De Semana tab

23 views 3 this week
no commentswrite comment
1 2 3 4 5
3 more votes to show rating
add to favorites
×
Save as Personal and add changes to this tab that will be seen only by you. Learn more ›
×
You can save this tab as Personal to edit and correct it or add notes. All changes will be seen only by you. Learn more »
launch autoscroll
font size
0
reset
how to read this tab
guitar tuner
edit
Autoscroll
slow
fast
+/-
esc
set tempo
stop
bueno que como estan todos pora qui les dejo esta cancion y este
grupo tan bueno y esta exelente cancion un saludo tambien para
ellos bueno
que es muy chevere un saludo a todos mis parceros alla en pereira
que en la buena.

el ritmo lo sacan escuchando la cancion¿?¿?¿

intro: Dm  C

e--13-10-13-13-10-12----12-12----13-10-13-13-10-12----12-12----
b--------------------13-------13-------------------13-------13-
g------------------------------------------------------------


e-13-10-10-13-10-10-13-10-10-13-10-10---------------------------
b---------------------------------------------------------------
g---------------------------------------------------------------

e-12------12--------12-------12---------------------------------
b---13-13-----13-13----13-13----13-13---------------------------
g---------------------------------------------------------------


e-13-10-10-13-10-10-13-10-10-13-10-10---------------------------
b---------------------------------------------------------------
g---------------------------------------------------------------

e-12-------12-------12-------12-------10------------------------
b----13-13----13-13----13-13----13-13---------------------------
g---------------------------------------------------------------

Dm                 C
Abrí mis sentimientos
              Dm
Abrí mi corazón
                 C                     Dm
Que vive acurrucado como un pobre caracol
                   C
Te dije lo que siento
                  Dm
vencí todo el temor
                   C                      Dm
Sabiendo que soy malo pa este cuento del amor.

precoro
Dm              C                 Dm
Es evidente que no haremos ese paseo
                           C
Que habíamos planeado los dos
           Dm
Ya no lo creo
                            C
No quiero que pierdas el tiempo
                Dm
Ni yo perder el mío
                        C
Mejor ya me voy pa la calle
             Dm
Aunque haga frío.

Dm(x4)  C(x4)
solo

e-------1-0---------1-0------------------------------------------
b-0-1-3-----3-0-1-3-----3--1-1-3-3-5-5-6-6-8-8---10^-12----------
g----------------------------------------------------------------

coro
Dm                   C
Si me preguntan por ti diré
      Dm                     C
Que fuiste un fin de semana muy largo (Bis)

intro Dm  C

e-13-10-10-13-10-10-13-10-10-13-10-10---------------------------
b---------------------------------------------------------------
g---------------------------------------------------------------

e-12------12--------12-------12---------------------------------
b---13-13-----13-13----13-13----13-13---------------------------
g---------------------------------------------------------------


e-13-10-10-13-10-10-13-10-10-13-10-10---------------------------
b---------------------------------------------------------------
g---------------------------------------------------------------

e-12-------12-------12-------12-------10------------------------
b----13-13----13-13----13-13----13-13---------------------------
g---------------------------------------------------------------


Dm...
Pensé que esto era en serio
Que tonto he sido yo
Aquí lo único serio es el dolor del corazón
No creo que tenga rabia

No me gusta el rencor
Pero no te me acerques por un tiempo por favor

precoro

Es evidente que no haremos ese paseo
Que habíamos planeado los dos
Ya no lo creo
No quiero que pierdas el tiempo
Ni yo perder el mío
Mejor ya me voy pa la calle
Aunque haga frío.

Dm(x4)  C(x4)

e-------1-0---------1-0------------------------------------------
b-0-1-3-----3-0-1-3-----3--1-1-3-3-5-5-6-6-8-8---10^-12----------
g----------------------------------------------------------------

coro

Si me preguntan por ti diré
Que fuiste un fin de semana muy largo.

intro final Dm  C
e-13-10-10-13-10-10-13-10-10-13-10-10---------------------------
b---------------------------------------------------------------
g---------------------------------------------------------------

e-12------12--------12-------12---------------------------------
b---13-13-----13-13----13-13----13-13---------------------------
g---------------------------------------------------------------


e-13-10-10-13-10-10-13-10-10-13-10-10---------------------------
b---------------------------------------------------------------
g---------------------------------------------------------------

e-12-------12-------12-------12-------10------------------------
b----13-13----13-13----13-13----13-13---------------------------
g---------------------------------------------------------------

OK ESPERO QU ELES SIRVA CUAL QUIER DUDA ME ESCRIBEN
ami correo jeonacho10@ UN SALUDO A TODOS SE CUIDAN

            
            
Suggest correction
Creating personal tab
Creating personal tab
You can edit any tab online and save it as your Personal.

You can edit, replace or remove any tab part or add personal notes – all changes will be seen only by you.

Personal tabs can be accessed anytime from any device, even offline.
Learn more »
Give kudos to tab author, rate the tab!
1 2 3 4 5
comments
print report bad tab
guest
Wanna post a correction for this tab? Suggest correction