Oops, an error
Loading. Please wait.

No Dudaría Bass Tab

41 views 1 this week
no commentswrite comment
1 2 3 4 5
3 more votes to show rating
add to favorites
launch autoscroll
font size
0
reset
guitar tuner
×
Best way to learn
"No Dudaría"
Autoscroll
slow
fast
+/-
esc
set tempo
stop
Intro

G ------------------------------------------------------------------|
D --------------------------------------44444444--------------------|
A 55555555---33333333---55555555----------------2222222-3-4-5-6-7---|
E-------------------------------------------------------------------|
								(x1)
Verso (sí pudiera...)

G ------------------------------------------------|
D ------------------------------------------------|
A 55555555---33333333---44444444---2222222222222--|
E ------------------------------------------------|
						(x2)
Chorus (Prometo ver la alegría...)

G ------------------------------------------------|
D ------------------------------------------------|
A 55555555---33333333---44444444---2222222222222--|
E ------------------------------------------------|
						(x4)
Puente (Churuchuruchuru?)

G ----------------------------------------------------------------|
D -------4-------6---------4-------6---------4-------6------------|
A ?5-----------------5------------------5-----------------55555555|
E ----------------------------------------------------------------|
								(x2)
Verso (sí pudiera...)

G ------------------------------------------------|
D ------------------------------------------------|
A 55555555---33333333---44444444---2222222222222--|
E ------------------------------------------------|
					       (x2)
Chorus (Prometo ver la alegría...)

G -----------------------------------------------|
D -----------------------------------------------|
A 55555555---33333333---44444444---2222222222222-|
E -----------------------------------------------|
					      (x4)

Puente (Churuchuruchuru?)

G -------------------------------------------------------------------|
D -------4-------6---------4-------6---------4-------6---------------|
A ?5-----------------5------------------5--------------------55555555|
E -------------------------------------------------------------------|
								(x2)
Solo de guitarra

G ----------------------------------------------------------------|
D -----------44444444---------------------------------------------|
A 55555555------------33333333-55555555-4444444-22222222-1 slide 5|
E ----------------------------------------------------------------|
								(x1)
Variación en Puente (Churuchuruchuru?)

G -------------------------------------------------------|
D -------------------------------------------------------|
A-55555555------------3333333-55555555-2222222-4444444---|
E -------------------------------------------------------|
							(x1)
Final

G ---------------|
D ---------------|
A ------------5--|
E ---------------|
		(x1)

Tocado una octava por debajo también queda bien.
Suggest correction
Give kudos to tab author, rate the tab!
1 2 3 4 5
comments
print report bad tab
guest
You may want to rate the tab now too:
select rating
Wanna post a correction for this tab? Suggest correction