Oops, an error
Loading. Please wait.

Te Perdí Tab

35 views 1 this week
no commentswrite comment
1 2 3 4 5
3 more votes to show rating
add to favorites
launch autoscroll
font size
0
reset
how to read this tab
guitar tuner
×
Best way to learn
"Te Perdí"
Autoscroll
slow
fast
+/-
esc
set tempo
stop
He exportado la tablatura con GUITAR PRO. Si quereis me podeis
enviar un e-mail para que os la mande en ese formato.

Intro teclado

       E   E   E   Q     E   E   E      E   Q     E   E   E   E   E
E||---10--11--10------------10--11--|--10------------10--11--10------|
B||---------------11----11----------|------11----11--------------11--|
G||*--------------------------------|--------------------------------|
D||*--------------------------------|--------------------------------|
A||---------------------------------|--------------------------------|
E||----4----------------------------|---6----------------------------|


   E   E   E   Q    Q     E     E  Q    Q    E  E  E
--10--11--10-----------------|------------------------|
--------------11----8--------|-----8------------------|
-------------------------10--|--L-------8----7--3--7--|
-----------------------------|------------------------|
-----------------------------|------------------------|
---8----------------------3--|------------------------|


  E  E  E  Q    E  E  E     E  Q    E  E  E  E  E
-------------------------|-------------------------|
-------------------------|-------------------------|
--7--8--7----------7--8--|--7----------7--8--7-----|
-----------8----8--------|-----8----8-----------8--|
-------------------------|-------------------------|
--4----------------------|--6----------------------|


  E  E  E  Q    Q     E     E  E  Q    E  E  E  E   4x
-------------------------|--------------------------||
-------------------------|-------------------6--8---||
--7--8--7----------------|-------------7--8--------*||
-----------8-------------|-------------------------*||
----------------8----10--|--L-----------------------||
--8-------------------3--|--L----------6------------||


Duration Legend
---------------
W - whole
H - half
Q - quarter
E - 8th
S - 16th
T - 32nd
X - 64th
. - note dotted
|-n-|  - n-tuplets


Tablature Legend
----------------
L - tied note
x - dead note
g - grace note
(n) - ghost note
> - accentuded note
NH - natural harmonic
AH - artificial harmonic
TH - tapped harmonic
SH - semi harmonic
PH - pitch harmonic
h - hammer on
p - pull off
b - bend
br - bendRelease
pb - preBend
pbr - preBendRelease
brb - bendReleaseBend
n/ - tremolo bar dip
n - tremolo bar dive
-/n - tremolo bar Release up
/n - tremolo bar inverted dip
/n - tremolo bar return
-n - tremolo bar Release down
S - shift slide
s - legato slide
/ -  slide into from below or out of upwards
 -  slide into from above or out of downwards
~ - vibrato
W - wide vibrato
tr - trill
TP - tremolo picking
T - tapping
S - slap
P - pop
< - fade in
^ - brush up
v - brush down
Suggest correction
Give kudos to tab author, rate the tab!
1 2 3 4 5
comments
print report bad tab
guest
You may want to rate the tab now too:
select rating
Wanna post a correction for this tab? Suggest correction