Oops, an error
Loading. Please wait.

Ave María Chords

version 1
version 1

Whole song

1,996 views 6 this week
no commentswrite comment
1 2 3 4 5
2 more votes to show rating
add to favorites
launch autoscroll
font size
0
reset
transpose
0
reset
display chords
guitar tuner
Autoscroll
slow
fast
+/-
esc
set tempo
stop
Help us to improve Ultimate-Guitar.com Take our survey!
×
Ps aki sta el mui solicitado Ave Maria, no esta a las VOCES
 de Il Divo, pero en estos tonos es mas facil de cantar.


 Este es el intro (es perfecto!)
 e|---------------------------------0------------3-----
 b|-------2------------2----------2---2--------5---5---
 g|-----2---2--------2---2------2-------2----6-------6-
 D|---2-------2----2-------2---------------------------
 A|-0------------0------------0------------0-----------
 E|----------------------------------------------------

 e|-------3------------1------------0------------------
 b|-----2---2--------2---2--------2---2----------2-----
 g|---3-------3----1-------1----2-------2------2---2---
 D|------------------------------------------2-------2-
 A|-0------------0------------0------------0-----------
 E|----------------------------------------------------

*Urs:
A    F#m-D   E          A
Ave Maria! Vergin del ciel
                          F#m
sovrana di grazie e madre pia

*David:
      D                           Bm
che accogli ognor la fervente preghiera,

non negar a questo straziato mio cuor
                A
tregua al suo dolor!

*Sébastien:
   Bm                           A
Sperduta l almamia si prosta a te
   Bm                              A
e pien di speme si prosta ai tuoi piè,

*Carlos:
Bm                           C#m
t invoca e attende che tu le dia
F#m          D             E
la pace che solo tu puoi donar
A    F#m-D
Ave Maria!

*Urs:
A   F#m-D   E        A
Ave Maria Gratia plena

*Sébastien:
A             F#m
Maria Gratia plena
E              A
Maria Gratia plena

*Carlos:
F#m        E
Ave, ave dominus
          A
Dominus tecum

*Sébastien:
   Bm                           A
Sperduta l almamia si prosta a te

*Urs:
   Bm                              A
e pien di speme si prosta ai tuoi piè,

*Carlos:
Bm                           C#m
t invoca e attende che tu le dia

*David:
F#m          D             E
la pace che solo tu puoi donar


A   F#m-D
Ave Maria!
A   F#m-D   E        A
Ave Maria Gratia plena
F#m        E
Ave, ave dominus
A   F#m-D
Ave Maria!

[TapsE]
Suggest correction
Give kudos to tab author, rate the tab!
1 2 3 4 5
comments
print report bad tab
guest
You may want to rate the tab now too:
select rating
Wanna post a correction for this tab? Suggest correction