Oops, an error
Loading. Please wait.

Regresa A Mí Tab

version 2
version 2

Whole song

by Il Divo
103 views 1 this week
no commentswrite comment
1 2 3 4 5
3 more votes to show rating
add to favorites
launch autoscroll
font size
0
reset
how to read this tab
guitar tuner
×
Best way to learn
"Regresa A Mí"
Autoscroll
slow
fast
+/-
esc
set tempo
stop
Hola muchachos esta transcripcion puede tener errores acepto sugerencias
a migue_d87@ saludos a todos mis amigos del cervantes y
de la secundaria...y tmb a todo Rio CUartoooo!!!

Intro.Bm-Em-A-F---------------------------------------------------|Bm-C-A
|-----------------------------------------------------------------|
|-----------------7-8--------7-----------------------------5s7----|
|--3-4-6-7--7-7-9------7-7-9----6--6~--4~--4~---3~---3-4-5--------|
|-----------------------------------------------------------------|
|-----------------------------------------------------------------|
|-----------------------------------------------------------------|
Verse 1:(Arpegiate All Chords)
Bm             Em        A           F#
No me abandones así, hablando sólo de ti.
   Bm     Em       A         F#
Ven y devuelveme al fin la sonrisa que se fue.
Bm                 Em       A            F#
Una vez más tocar tu piel, el hondo suspirar
   Bm     Em       A         F#
Recuperemos lo que se ha perdido.
F#       Dm    Gm            C
Regresa a mí, quéreme otra vez.
A          Dm                 Gm                          C
borran el dolor que al irte me dio cuando te separaste de mí.

A       Dm     Gm             C
Dime que sí, Yo no quiero llorar,
A        F#
regresa a mí.
Verse 2:
Bm              Em              A                F#
Extraño el amor que se fue, extraña la dicha también.
Bm              Em      A               F#
Quiero que vengas a mí y me vuelvas se querer.

   Bm               Em         A            F#
No puedo más si tú no estás, tienes que llegar.

Bm            Em             A
Mi vida se apaga sin ti a mi lado.
F#       Dm    Gm            C
Regresa a mí, quéreme otra vez.
A          Dm                 Gm                          C
borran el dolor que al irte me dio cuando te separaste de mí.

A       Dm     Gm             C
Dime que sí, Yo no quiero llorar,
A        F#
regresa a mí.
 tabs & dicasSolo:
|----------6-6s7-6-4-7------------------------------------4--6--6s7-|
|--------4-------------5-------7-9-9s11-9-11-9s7--9s11s4------------|
|--3-4-6-----------------6-8s9--------------------------------------|
|6------------------------------------------------------------------|
|-------------------------------------------------------------------|
|-------------------------------------------------------------------|

|----6-7-9-9s11-11s4-----7h9p7p6---6-----6-7-9-7-6-7s9-7--|
|--9-------------------9---------9---7--------------------|
|---------------------------------------------------------|
|---------------------------------------------------------|
|---------------------------------------------------------|
|---------------------------------------------------------|
Bridge:
Bm             Em     A               F#
No me abandonas así, hablando sólo de ti.
Bm              Em             A
Devuelveme la pasión de tus brazos.
F#       Dm    Gm            C
Regresa a mí, quéreme otra vez.
A          Dm                 Gm                          C
borran el dolor que al irte me dio cuando te separaste de mí.
A       Dm     Gm             C
Dime que sí, Yo no quiero llorar,
A        F#
regresa a mí.
Suggest correction
Give kudos to tab author, rate the tab!
1 2 3 4 5
comments
print report bad tab
guest
You may want to rate the tab now too:
select rating
Wanna post a correction for this tab? Suggest correction