Oops, an error
Loading. Please wait.

Constantemente Mía Tab

107 views 1 this week
no commentswrite comment
1 2 3 4 5
3 more votes to show rating
add to favorites
launch autoscroll
font size
0
reset
how to read this tab
guitar tuner
Autoscroll
slow
fast
+/-
esc
set tempo
stop
Help us to improve Ultimate-Guitar.com Take our survey!
×
PUNTEO DE LA MELODÍA (VERSIÓN DE VIDEO):

ESTROFA I:
Solo aquí, te imagino junto a mí
Se hace eterno el tiempo pensando en ti...
E|------------------------------------------------|
B|------------0----------------0-------0-3-3-s-2v-|
G|-2------2-----1-1------1---1---2-2-2------------|
D|---2-2----2-------2-2----2----------------------|

Siempre te extraño y entre
mis brazos te quiero sentir
E|-------------------0-0--0-5v-4-2-0-|
B|----0-2-2-0--0-2-3-5---------------|
G|-2---------------------------------|
D|-----------------------------------|

ESTRIBILLO:
Constantemente mía, mía?
Cierro los ojos y aquí estás
En medio de mis lágrimas
Y en todo lo demás
E|---------------------------------0---------------0----------------------|
B|-------0-2--3-2--3v-2--------0-2---0-0v--0-0-2-3---3-2-------2-0--------|
G|-2-2-2-----------------2-2-2---------------------------2v--2-----2-1-2v-|
D|------------------------------------------------------------------------|

Constantemente mía, mía?
Te escucho entre cualquier lugar
Abarcas cada palpitar
E|---------------------------------------0---------2-0------------|
B|-------0-2--3-2--3---------------0-2---0-0-0v--0-----3-2-0---2v-|
G|-2-2-2-------------4-s-6v--2-2-2---------------------------2----|
D|----------------------------------------------------------------|

de mi soledad?
Constantemente mía, mía...a
Constantemente mía, mía
E|---------------------------------------------------|
B|-2-0---------------------------------------------0-|
G|-----2-1-2---------------------------------------4-|
D|------------6-6-4-6-4-6-4---4-6--6-6-4-6-4-6-4-6---|
A|--------------------------4------------------------|

ESTROFA II:
Deseándote, noche tras noche amándote
Hablo con tu rostro en la obscuridad
E|-5-5-0-0--5-5-0-5-0-4-0-0--7-5-4---5-5-5-5-7-10-10-9v-|
B|---------------------------------7--------------------|
G|------------------------------------------------------|
D|------------------------------------------------------|

y en un momento mis
sentimientos vuelven a brotar

E|-5-7-9-5------4-4-5-5--0-5-4-2-0-|
B|---------7--7--------------------|
G|---------------------------------|
D|---------------------------------|

ESTRIBILLO:
Constantemente mía, mía
Cierro los ojos y aquí estás
En medio de mis lágrimas
y en todo lo demás... ás...
E|------------------------------------0--------------0-----------------------|
B|-------0-2--3-2--3-s-5-2--------0-2---0-0--0-0-2-3---3-2------2-0-------3v-|
G|-2-2-2--------------------2-2-2--------------------------2--2-----2-1-2----|
D|---------------------------------------------------------------------------|

Constantemente mía?
Cuando llueve y hace frío
Estás conmigo a mi alrededor?
E|---------0------5v-4v--0-5-4-7-0---0------5-4-4-7--0-5-4-5-7v-|
B|-3-3-3-3---2--------------------------------------------------|
G|---------------------------------2---2--2---------------------|
D|--------------------------------------------------------------|

Cuando duermo sueño tu calor
E|-------0----5-4-2-0-|
B|---0-2--------------|
G|-2--------2---------|
D|--------------------|

(SUBE 1 TONO):

ESTRIBILLO:
Constantemente mía, mía
Cierro los ojos y aquí estás
En medio de mis lágrimas
y en todo lo demás... ás...
E|-----------0---0---------------2-4-2v--------0-2-0------------------0v-|
B|-0-0-0-2-4---4---4v--0-0-0-2-4---------2-2-4-------4-0--0-4-2-0---0----|
G|----------------------------------------------------------------3------|
D|-----------------------------------------------------------------------|

Constantemente mía, mía
Te escucho entre cualquier lugar
Abarcas cada palpitar
De mi soledad?
E|-0-0-0-0-2-0---0--------------2--------7-6-------6-------6-7-9----|
B|-------------4---4--0-0-0-2-4---2-2--7-----9-7-9---9v--9-------9v-|
G|------------------------------------------------------------------|
D|------------------------------------------------------------------|

Constantemente mío, mío
Constantemente mía, mí..ía...
Mío?
E|-6-6-4-6-4-6-4---4-2---------------------------------|
B|---------------4-------------------------------4v----|
G|----------------------3-3-1-3-1-3-1-3-s-6-6v------1v-|
D|-----------------------------------------------------|
Suggest correction
Give kudos to tab author, rate the tab!
1 2 3 4 5
comments
print report bad tab
guest
You may want to rate the tab now too:
select rating
Wanna post a correction for this tab? Suggest correction