Oops, an error
Loading. Please wait.

O Sole Mío Tab

2,716 views 36 this week
no commentswrite comment
1 2 3 4 5
x 5
add to favorites
launch autoscroll
font size
0
reset
how to read this tab
guitar tuner
×
Best way to learn
"O Sole Mío"
Autoscroll
slow
fast
+/-
esc
set tempo
stop
VERSIÓN SENCILLA PARA GUITARRA (PUNTEO DE LA VOZ)
¡ESPERO QUE SEA DE SU AGRADO!

INTRO: G

GIANLUCA
Che bella cosa na jurnata 'e sole,
e|------------------------|
B|-3-1-0----------0-------|
G|-------2-0--0-2---0-----|
D|--------------------4-2-|

n'aria serena doppo na tempesta!
e|------------------------|
B|------------------------|
G|---0-2----------0-2-----|
D|-4-----4-2--2-4-----2-0-|

Pe' ll'aria fresca pare gia` na festa,
e|------------------------|
B|-3-1-0----------0-------|
G|-------2-0--0-2---0-----|
D|--------------------4-2-|

che bella cosa na jurnata 'e sole.
e|------------------------|
B|-1-0---3-0--------0-----|
G|-----2------2-0-2---2-0-|
D|------------------------|

PIERO
Ma n'a?tu sole
e|------------------|
B|-8-10-8v----7-7---|
G|----------------7-|
D|------------------|

cchiu` bello, oje ne',
e|-2-3----------|
B|---------5----|
G|-----------5v-|
D|--------------|

'o sole mio, sta 'nfronte a te!
e|-2-2-0---------------|
B|-------1-1----0-1-3v-|
G|------------2--------|
D|---------------------|

IGNAZIO
O sole, 'o sole mio,
e|----------3v---------|
B|-3-4-4--1------4-3-3-|
G|---------------------|
D|---------------------|

sta 'nfronte a te, sta 'nfronte a te!
e|------------------|
B|-0-----3--0-------|
G|---2-0------2-0-0-|
D|------------------|

GIANLUCA
Quanno fa notte e 'o sole se ne scenne,
e|--------------------------|
B|-3-1-0------------0-------|
G|-------2-0--0-0-2---0-----|
D|----------------------4-2-|

me vene quase 'na malincunia.
e|----------------------|
B|----------------------|
G|---0-2--------0-2-----|
D|-4-----4-2--4-----2-0-|

PIERO
Sotto 'a fenesta toia restarria,
e|------------------------|
B|-3-1-0----------0-------|
G|-------2-0--0-2---0-----|
D|--------------------4-2-|

quanno fa notte e 'o sole se ne scenne.
e|--------------------------|
B|-1-0---3-0--0-------0-----|
G|-----2--------2-0-2---2-0-|
D|--------------------------|

IGNAZIO
Ma n'a?tu sole
e|------------------|
B|-8-10-8v----7-7---|
G|----------------7-|
D|------------------|

cchiu` bello, oje ne',
e|-2-3----------|
B|---------5----|
G|-----------5v-|
D|--------------|

'o sole mio, sta 'nfronte a te!
e|-2-2-0---------------|
B|-------1-1----0-1-3v-|
G|------------2--------|
D|---------------------|

O sole, 'o sole mio,
e|----------3-------|
B|-3-4-4--1---4-3-3-|
G|------------------|
D|------------------|

sta 'nfronte a te, sta 'nfronte a te!
e|------------------|
B|-0-----3--0-------|
G|---2-0------2-0-0-|
D|------------------|

(BIS)= PIERO

O sole, 'o sole mio,
e|----------3-------|
B|-3-4-4--1---4-3-3-|
G|------------------|
D|------------------|

sta 'nfronte a te, sta 'nfron...te a te!
e|-------------5v--------3-3v-|
B|-0-----3v--3----------------|
G|---2-0----------------------|
D|----------------------------|
Suggest correction
comments
print report bad tab
guest
You may want to rate the tab now too:
select rating
Wanna post a correction for this tab? Suggest correction