Oops, an error
Loading. Please wait.

El Espía Bass Tab

14 views 1 this week
no commentswrite comment
1 2 3 4 5
3 more votes to show rating
add to favorites
launch autoscroll
font size
0
reset
guitar tuner
×
Best way to learn
"El Espía"
Autoscroll
slow
fast
+/-
esc
set tempo
stop
La introduccion es esta (se cambia de nota,
igual con la guitarra)

G|----------|----------|--------------|
D|----------|----------|--------------|
A|----------|----------|--------------|
E|-7-7^7--7-|-5-5^5--5-|-0-0^0--0-0^0-|


Estas son las estrofas
  Bm      A       E/D
G|-------|-------|-------|
D|-------|-------|-------|
A|-------|-------|-------|
E|-7-7^7-|-5-5^5-|-0-0^0-|

Bm              A
Nuevas parejas, se estrenan esta noche,
E/D                                    Bm
entre las sábanas de pensiones baratas.
                         A
Diez mil obreros en paro, esperan en las plataformas
E/D
de suicidio colectivo.

CORO:
  D       A       Bm 
G|-------|-------|-------|
D|-------|-------|-------|
A|-3-3^3-|-------|-2-2^2-|
E|-------|-5-5^5-|-------|

D                 A                      Bm
  Yo soy quien espía los juegos de los niños
D            A                     Bm  
  si te despistas estaré en tu bolsillo
D                A                    Bm 
  yo soy quien espía los juegos de los...


DESPUES DE LAS ESTROFAS SE REPITE EL INTRO
Y EN LA ULTIMA PARTE. (En dónde te desespera)

E|--0-0-0-0-0-0-0-0-0-0-0-|
Suggest correction
Give kudos to tab author, rate the tab!
1 2 3 4 5
comments
print report bad tab
guest
You may want to rate the tab now too:
select rating
Wanna post a correction for this tab? Suggest correction