Oops, an error
Loading. Please wait.

El Espía Chords

version 1
version 1

Whole song

20 views 1 this week
no commentswrite comment
1 2 3 4 5
3 more votes to show rating
add to favorites
launch autoscroll
font size
0
reset
transpose
0
reset
display chords
guitar tuner
Autoscroll
slow
fast
+/-
esc
set tempo
stop
Help us to improve Ultimate-Guitar.com Take our survey!
×
INTRO:

e|-5/7----------
B|-----5/7--7/8-
G|--------------
D|--------------
A|--------------
E|--------------

 
   B   A   E*  
e|-7---5---3-------  (Cada uno de estos va despues
B|-7---5---4-------   del bajo, si quieren hacer 
G|-7---6---3-------   los bajos en la guitarra, les
D|-----------------   doy una ayuda)
A|-----------------
E|-----------------

Esta es con bajos incluídos:

  B           A            E*
e|--7-----7-|--5------5--|---3-----3-
B|--7-----7-|--5------5--|---4-----4-
G|--7-----7-|--6------6--|---3-----3-
D|----------|------------|-----------
A|----------|------------|-----------
E|-7--7^7---|-5--5^5-----|-3---4^4---

B               A  
Nuevas parejas, se estrenan esta noche,
E*                                    B
entre las sábanas de pensiones baratas,
B                        A                    
diez mil obreros en paro, esperan en la 
           E*                   B (Rápido)       
plataforma, de suicidio colectivo.

CORO:
D               C                        A 
Yo soy quien espía los juegos de los niños,
D             C                    A
si te despistas estaré en tu bolsillo,

yo soy quien espía los juegos de los...

(Sigue lo mismo)
Suggest correction
Give kudos to tab author, rate the tab!
1 2 3 4 5
comments
print report bad tab
guest
You may want to rate the tab now too:
select rating
Wanna post a correction for this tab? Suggest correction