Oops, an error
Loading. Please wait.

El Espía Tab

20 views 3 this week
no commentswrite comment
1 2 3 4 5
3 more votes to show rating
add to favorites
launch autoscroll
font size
0
reset
how to read this tab
guitar tuner
Autoscroll
slow
fast
+/-
esc
set tempo
stop
RIFF1

e|--------------------------------------|
B|-7~-7---------------------------------|
G|-7~---6~-7~---------------------------|       X2
D|-------7~-9~--------------------------|
A|--------------------------------------|
E|--------------------------------------|

RIFF2
e|-------------------------------------|
B|------------7~--7/8-7-5^7------------|
G|------7^9--7~------------------------|
D|-7h9---------------------------------|
A|-------------------------------------|
E|-------------------------------------|

e|------------------------------|---------------|
B|------------7~-7/8--7--5^7----|---------------|
G|------7^9--7~-----------------|--7h9--7-5^7---|
D|-7h9--------------------------|---------------|
A|------------------------------|---------------|
E|------------------------------|---------------|

e|--10--9--7--9--7--6--7----|---------------|
B|-8---7--5--7--5--4--5-----|-7/8--7-5^7----|
G|--------------------------|---------------|
D|--------------------------|---------------|
A|--------------------------|---------------|
E|--------------------------|---------------|

RIFF3
e|------------------|------------------------------------|
B|-7~--7------------|-7~-7--9~--11^11^11^11^11^11^11^11--|
G|-7~----6~-7~------|-7~----9~--11^11^11^11^11^11^11^11--|
D|--------7~-9~-----|------------------------------------|
A|------------------|------------------------------------|
E|------------------|------------------------------------|
Suggest correction
Give kudos to tab author, rate the tab!
1 2 3 4 5
comments
print report bad tab
guest
You may want to rate the tab now too:
select rating
Wanna post a correction for this tab? Suggest correction