Oops, an error
Loading. Please wait.

Todos Somos Traídores Tab

11 views 1 this week
no commentswrite comment
1 2 3 4 5
3 more votes to show rating
add to favorites
launch autoscroll
font size
0
reset
how to read this tab
guitar tuner
×
Best way to learn
"Todos Somos Traídores"
Autoscroll
slow
fast
+/-
esc
set tempo
stop
Aquí les va una canción del mejor grupo de la
historia del Rock en Español.


e|--------0/1----1--|--------------------|-----------
B|---1--------1-----|--3---6/7/6-3-------|-2--5/6/5--
G|--0-0-------------|---------------6----|-----------
D|-2---2------------|--------------------|-----------
A|------------------|--------------------|-----------
E|------------------|--------------------|-----------
 
e|------------|----------------|------------|--------
B|--2/3/2~~---|----------------|------------|--------
G|------------|-2-4-5-5/6/5----|-2--4/5/4---|-2/3/2--
D|------------|----------------|------------|--------
A|------------|----------------|------------|--------
E|------------|----------------|------------|--------

Em                  Em7
Si en tu tumba no hay flores,
C                     G
no es que te haya olvidado.

CORO:
Am                  D      
Es solo que al final,
Bm7d                C*7
todos somos traídores

La demás letra no la pude conseguir porque se me ha perdido la cinta pero es lo mismo

e|------------------|----------|----------------------
B|--1--5/6/5--3^4---|-3--4/5/4-|-3/4/3----------------
G|------------------|----------|----------------------
D|------------------|----------|----------------------
A|------------------|----------|----------------------
E|------------------|----------|----------------------

e|----------------------|------------|-----------------
B|-2/3~--4^5--5h6/5-----|-3--4h5/4---|--3/4/3----------
G|----------------------|------------|-----------------
D|----------------------|------------|-----------------
A|----------------------|------------|-----------------
E|----------------------|------------|-----------------


/ = s (slide)
h= hammer
Lo demas y adeben saber

ACORDES USADOS:

C*7    SI7d
e|-X----0---
B|-0----4---
G|-1----2---
D|-0----4---
A|-1----2---
E|-0----0---

Nos veremos en el limbo.
Suggest correction
Give kudos to tab author, rate the tab!
1 2 3 4 5
comments
print report bad tab
guest
You may want to rate the tab now too:
select rating
Wanna post a correction for this tab? Suggest correction