Oops, an error
Loading. Please wait.

Yo Soy Quien Espía Los Juegos De Los Niños Bass

199 views 1 this week
no commentswrite comment
1 2 3 4 5
3 more votes to show rating
add to favorites
×
Save as Personal and add changes to this tab that will be seen only by you. Learn more ›
×
You can save this tab as Personal to edit and correct it or add notes. All changes will be seen only by you. Learn more »
save as personal
new!
launch autoscroll
font size
0
reset
guitar tuner
Autoscroll
slow
fast
+/-
esc
set tempo
stop
8x
G :-----------------|----------------|----------------|---------------- ||
D :-----------------|----------------|----------------|----------------*||
A :5-----5-5\-------|----------------|2-----2-2-------|2-----2-2-------*||
E :-----------------|5-----5-5-------|----------------|---------------- ||

G :----------------|----------------|----------------|---------| El ultimo
D :----------------|2-2-2-2-2-2-2-2-|4-4-4-4-4-4-4-4-|4\-------| compas es
A :2-2-2-2-2-2-2-2-|----------------|----------------|---------| un 2x4
E :----------------|----------------|----------------|---------|


   S1
G :| ----------------|----------------|----------------|----------------|
D :|*----------------|----------------|----------------|----------------|
A :|*2-----2-2-------|2-----2-2-------|----------------|----------------|
E :| ----------------|----------------|5-----5-5-------|5-----5-5-------|
                                                                       3x
G :----------------|----------------|----------------|---------------- ||
D :----------------|----------------|----------------|----------------*||
A :----------------|----------------|2-----2-2-------|2-----2-2-------*||
E :0-----0-0-------|0-----0-0-------|----------------|---------------- ||

G :| ----------------|----------------|----------------|---------------- ||
D :|*----------------|----------------|----------------|--------------2-*||
A :|*5-----5-5-4-2---|----------------|2-2---2---5-----|2-2---2---------*||
E :| ----------------|5-----5-5---6---|----5-----------|----5-----5----- ||

G :----------------|------------------| El ultimo compas
D :----------------|------------------| es un 5x4
A :5-----5-5-4-2---|------------------|
E :----------------|5-----5-5---6-----|

Desde S1 2 veces

   S2
G :| -----------------|----------------|----------------|---------------- ||
D :|*-----------------|----------------|----------------|----------------*||
A :|*5-----5-5\-------|----------------|2-----2-2-------|2-----2-2-------*||
E :| -----------------|5-----5-5-------|----------------|---------------- ||

G :|----------------|----------------|----------------|-----------------|
D :|----------------|2-2-2-2-2-2-2-2-|4-4-4-4-4-4-4-4-|4\---------------|
A :|2-2-2-2-2-2-2-2-|----------------|----------------|-----------------|
E :|----------------|----------------|----------------|-----------------|

Desde S2 1 vez


#------------------------------SIMBOLOS EMPLEADOS------------------------------#

        Simbolo Significado     Traduccion
        h       Hammer on       Notas ligadas, siendo la primera mas grave
        p       Pull off        Notas ligadas, siendo la primera mas aguda
        /       Slide up        Arrastrar de grave a agudo
        \       Slide down      Arrastrar de agudo a grave
        ^       Bend up         Estirar la cuerda hasta otra nota mas aguda
        b       Bend            Idem pero haciendola vibrar
        r       Release bend    Pasar de cuerda estirada a posicion normal
        ~       Vibrato         Hacer vibrar con movimiento paralelo al mastil
        ()      Soft            Tocar mas flojo
              Harmonic        Armonico
              Tremolo         Subir y bajar volumen rapidamente
        x       Muted string    La cuerda no debe sonar
        *       Stop string     Parar la cuerda
Suggest correction
Give kudos to tab author, rate the tab!
1 2 3 4 5
comments
print report bad tab
guest
Wanna post a correction for this tab? Suggest correction