Oops, an error
Loading. Please wait.

Yo Soy Quien Espía Los Juegos De Los Niños Tab

version 1
version 1

Whole song

241 views 1 this week
no commentswrite comment
1 2 3 4 5
3 more votes to show rating
add to favorites
launch autoscroll
font size
0
reset
how to read this tab
guitar tuner
×
Best way to learn
"Yo Soy Quien Espía Los Juegos De Los Niños"
Autoscroll
slow
fast
+/-
esc
set tempo
stop
Esta transcripsión es para atodos aquellos amantes de la música
de los Ilegales de España. Arriba el Rock Latino!!!!!

INTRO
---------------------------------------------------------------
-------------5-------7^-----------------5-------7^-------------
11^--11/6-6^----6h7--7^----11^--11/6-6^----6h7--7^-------------
12^--12/7-7^---------------12^--12/7-7^------------------------
---------------------------------------------------------------
---------------------------------------------------------------

---------------------------------------------------------------
---------------------------------------------------------------
----7-9-9/11^---9/7-7-6-7--6--------6h7p6--------6h7p6---------
7h9--------------------------7------------7------------7-------
--------------------------------------------9^-----------9^----
---------------------------------------------------------------

---------------------------------------------------------------
----------------------------10^--10h12p10-----10h12p10---------
----7-9-9/11^--11p9---9--11---------------11^----------11-11^--
7h9----------------12------------------------------------------
---------------------------------------------------------------
---------------------------------------------------------------

---------------------------------------------------------------------
-10h12p10------------------------------------------------------------
-----------11-9-----------------------------------7^-9^--9h11-9h11^--
---------------12----12-11-12-11h12p11-------7h9^--------------------
--------------------------------------12^----------------------------
---------------------------------------------------------------------

---------------------------------------------------------------------
---------------------------------------------------------------------
11^-11-9------------------------6h7p6--------------------------------
12^------12-11-12--11h12p11-----------7------------------------------
----------------------------9^----------9^---------------------------
---------------------------------------------------------------------

---------------------------------------------------------------------
-----------5-------7^----------------5-------7^----------------------
11^--11/6^----6h7--7^----11^--11/6^-----6h7--7^----------------------
12^--12/7^---------------12^--12/7^----------------------------------
---------------------------------------------------------------------
---------------------------------------------------------------------

--5-----7------------------------------------------------------------
7---7/9---9/11-11--11-11--11-11--11-11--11/1-------------------------
7---7/9---9/11-11--11-11--11-11--11-11--11/1-------------------------
---------------------------------------------------------------------
---------------------------------------------------------------------
---------------------------------------------------------------------

Fin del Intro 1

-------------------------
INTRO 2: Sim La Mi Sim

SIm
Nuevas parejas
LA
se estrenan esta noche
MI                                 SIm
entre las sábanas de pensiones baratas

SIm
Diez mil obreros en paro
LA
esperan en la plataforma
MI                SIm
de suicidio colectivo
------------------------------------------
CORO 1
RE              LA                   SIm
Yo soy quien espía los juegos de los niños    [Riff]
RE       LA                    SIm
Si te despistas están en tu bolsillo     [Riff]
RE              LA
Yo soy quien espía los juegos de los...
------------------------------------------
INTRO 2
-------

Muchachos duros
se estrenan en la mafia
papá revólver protege a sus hijos

Los estudiantes
se suicidan
disparando contra la policía

-----------------------------------------------
CORO 2
Los maestros se quejan por los cristales rotos  [Riff]
En todas partes hay gente idiota    [Riff]
Yo soy quien espía los juegos de los...
-----------------------------------------------
INTRO 2
-------

Madame Croft se abanica
con sus acciones
devaluadas al cuarenta por cien

Nuevos cantantes
hacen el ridículo
en viejos festivales como Eurovisión

---------
CORO 1
---------
Intro 1
---------

Fin

Aquí esta el Riff, sale por Sim
--------------------------------------
---------7----------7-----------------
-------7----------7-------------------
-----9----------9---------------------
-----------9--------------------------
--------------------------------------

Arriba la Banda de los zanahorias Gian, Milton y Yop
Suggest correction
Give kudos to tab author, rate the tab!
1 2 3 4 5
comments
print report bad tab
guest
You may want to rate the tab now too:
select rating
Wanna post a correction for this tab? Suggest correction