Oops, an error
Loading. Please wait.

Yo Soy Quien Espía Los Juegos De Los Niños Tab

version 2
version 2

Whole song

254 views 3 this week
no commentswrite comment
1 2 3 4 5
3 more votes to show rating
add to favorites
launch autoscroll
font size
0
reset
how to read this tab
guitar tuner
×
Best way to learn
"Yo Soy Quien Espía Los Juegos De Los Niños"
Autoscroll
slow
fast
+/-
esc
set tempo
stop
Este es el intro tomado del disco de los 20 años que para mi suena
Mejor que el de estudio.


   p - Pull off
   h - Hammer on
   / - Slide
   v ? Vibrato
   b ? Bend
   () ? Armónico Artificial

   Br ? Bend/release


---------------------------------------------------------------------
-10v----10/5v------------------7v-----10v----10/5v-----------------
-11v----11/6v------6/9----6----7v-----11v----11/6v------6/9--------
---------------------------------------------------------------------
---------------------------------------------------------------------
---------------------------------------------------------------------


---------------------------------------------------------------------
----------7v-------------------------------------------------------
-----6----7v--------------7-9-9b---9br9-7-6-7-6h7p6-----------6h7--
------------------------7-9---------------------------7v-------------
---------------------------------------------------------------------
---------------------------------------------------------------------


---------------------------------------------------------------------
---------------------------------------------------------------------
-6-------------6h7--6-----------------7-9-9b?9br9-7-9v----11--14-----
---7-------------------7----------7-9--------------------------------
------9v-----------------9v------------------------------------------
---------------------------------------------------------------------


---------------------------------------------------------------------
----------------------------------------15--12-----------------------
-14/16-14----------14h16-14-------------14------14-11----------------
-----------16v---------------16-16v--------------------14-12-11-12---
---------------------------------------------------------------------
---------------------------------------------------------------------


---------------------------------------------------------------------
---------------------------------------------------------------------
------------------7-9?9b---(9b)----9br9-7-6-7-6h7p6--------6h7-6-----
-11h12p11-----9--------------------------------------7------------7--
----------12---------------------------------------------9-----------
---------------------------------------------------------------------


---------------------------------------------------------------------
------------10v----10/5v-----------------------7v-------------10v----
------------11v----11/6v--------6/9----6-------7v-------------11v----
---------------------------------------------------------------------
-9-------------------------------------------------------------------
---------------------------------------------------------------------


---------------------------------------------------------------------
-10/5v---------------------------7v-------------10v----10------------
-11/6v---------6/9--------6------7v-------------11v---------11/13v---
------------------------------------------------------------12/14v---
---------------------------------------------------------------------
---------------------------------------------------------------------


---------------------------------------------------------------------
-12------------------------------------------------------------------
-----13/15----15---15---15---15---15---15---15---15---15/------------
-----14/16----16---16---16---16---16---16---16---16---16/------------
---------------------------------------------------------------------
---------------------------------------------------------------------
Suggest correction
Give kudos to tab author, rate the tab!
1 2 3 4 5
comments
print report bad tab
guest
You may want to rate the tab now too:
select rating
Wanna post a correction for this tab? Suggest correction