Oops, an error
Loading. Please wait.

Primer Sueño De Amor Tab

32 views 1 this week
no commentswrite comment
1 2 3 4 5
3 more votes to show rating
add to favorites
launch autoscroll
font size
0
reset
how to read this tab
guitar tuner
Autoscroll
slow
fast
+/-
esc
set tempo
stop
Help us to improve Ultimate-Guitar.com Take our survey!
×
|------------------------|----------------------------
|------------------------|----------------------------
|------------------------|--------------0-2-0---0-2-3-
|-------0---0-3-2-0---2-0|---0-2-3-2-3--------3-------
|-0-2-4---4---------4----|-4--------------------------
|------------------------|----------------------------

|-------|
|-1-2-3-|
|-------|
|-------|
|-------|
|-------|  LA7 - REm


A.
        SIb
//:Querida pampa
      DO             FA
Atardecer de mil colores://
//:A tu regazo,
LA                  REm
paloma mía vuelvo alegre://

A.
//:Tu voz morena
Me dio el amor sin ataduras://
//:Tu sangre nueva,
todo tu Sol llenó mis venas://

B.
SIb          FA
Perla del Norte
DO                     FA
Sobre tus cerros voy cantando
DO                SIb
Me hundo en la arena
LA                      REm
En la humedad de tus playas

B.
Y cuando me vaya
Tu cariño he de llevarme
//:Tal vez mañana
Regresaré para quedarme://

|-------------|-----------------|
|-------------|-----------------|
|-2-0---------|-------------0-2-|
|-----3-2-3-0-|---0-2-3-2-3-----|
|-------------|-3---------------|
|-------------|-----------------|
REm
SIb-FA-DO-FA
DO-SIb-LA-REm
DO-SIb-LA-REm

|-------------------------|-----------------|
|-------------------------|-----------------|
|-------------------------|-----------------|
|-------0---0-3-2-0---2-0-|---0-3-2-0---2-0-|
|-0-2-4---4---------4-----|-4---------4-----|
|-------------------------|-----------------|
REm

C.
FA
//:Vuelvo desierto, sal mineral
Mi adolescencia, canto vital
Las salitreras, mi infancia en flor
LA                  REm
Mi primer sueño de amor://

FA-LA-REm
FA-LA-REm
REm-SIb-FA
REm-SIb-FA
FA-LA-REm
FA-LA-REm-DO-FA-LA-REm
Suggest correction
Give kudos to tab author, rate the tab!
1 2 3 4 5
comments
print report bad tab
guest
You may want to rate the tab now too:
select rating
Wanna post a correction for this tab? Suggest correction