Oops, an error
Loading. Please wait.

Húmeda Chords

version 1
version 1

Whole song

Interactive

119 views 1 this week
no commentswrite comment
1 2 3 4 5
3 more votes to show rating
add to favorites
launch autoscroll
font size
0
reset
transpose
0
reset
display chords
guitar tuner
Autoscroll
slow
fast
+/-
esc
set tempo
stop
Help us to improve Ultimate-Guitar.com Take our survey!
×
+ Tablaturas de la Vanguardia del Rock          +
+   +
+++++++++++++++++++++++++++++++++++++++++++++++++

ok humeda esta mas o menos asi:
(es MUY basica, en el compact tocan los acordes barra y cuando cambian los
acords tocan algun tipo de slide... no se como describirlo)

el verso toca:
-------0-------------------0------------------0--------------------0----------
------------0----1-------------0----1-------------0------1------------0----1--
---2-----------------2\1----------------1\0-------------------0\--------------
-------------------------------------------------------------------------3----
------------------------------------------------------------------------------
------------------------------------------------------------------------------

despues, para el coro (sabes bien, no podre sin ti a lado mio...) se toca
Lam Mi y un acorde asi:

\______/
 | | | | o
 | | | o |    no se como se llama
 | | o | |    parece que es algun tipo de Fa con Mi (lo llamare Fa)
                   (yo se muy poco sobre teoria de musica) 
no es justamente Mi, es algun variacion, no es Mim, pero si lo tocas con
emfasis en las cuerdas bajas, suena bastante bien...

asi es:
Am             E      F                   Am
         sabes bien  no podre sin ti al lado mio
         sabes bien  te amare oh aunque no estes aqui


luego hay un solo para la guitarra. tocan Rem y La (mas o menos) y para mi
tocan los acordes barra.  (o sea:)
\__La__/
 ----------  (5)
 | | | o | |
 | o o | | | 

ok despues tocan:

-------------------0--------------------------------------------3-
--------------0---------0---------------------------------0-------
---------2--------------------2---------2---------2---------------
----4-----------------------------4----------3--------------------
------------------------------------------------------------------
------------------------------------------------------------------
Suggest correction
Give kudos to tab author, rate the tab!
1 2 3 4 5
comments
print report bad tab
guest
You may want to rate the tab now too:
select rating
Wanna post a correction for this tab? Suggest correction