Oops, an error
Loading. Please wait.

No Serás Derrotado Tab

by Imperio
23 views 1 this week
no commentswrite comment
1 2 3 4 5
3 more votes to show rating
add to favorites
×
Save as Personal and add changes to this tab that will be seen only by you. Learn more ›
×
You can save this tab as Personal to edit and correct it or add notes. All changes will be seen only by you. Learn more »
save as personal
new!
launch autoscroll
font size
0
reset
how to read this tab
guitar tuner
Autoscroll
slow
fast
+/-
esc
set tempo
stop
SOLO

*1 
|-16~12----12--%-%-%-|-%-|-18/(19)-18---------|-21/(23)-%-%-|------------------|-%-|
|-------14-----------|---|--------------------|-------------|-11~8---8~-%-%-%--|---|
|--------------------|---|------------18/(20)-|-------------|------8-----------|---|
|--------------------|---|--------------------|-------------|------------------|---|
|--------------------|---|--------------------|-------------|------------------|---|
|--------------------|---|--------------------|-------------|------------------|---|

|-----------------|-----------------|-14~(16)-|-----------------|-11~7-------7--12~7------7-|
|-12~9---9~-%-%-%-|-13~9---9~-%-%-%-|---------|-----|-----|-----|------9---8--------9---9---| 
|------8----------|------8----------|---------|-G#5-|-D#5-|-G#5-|--------8------------9-----|
|-----------------|-----------------|---------|-----|-----|-----|---------------------------|
|-----------------|-----------------|---------|-----------------|---------------------------|
|-----------------|-----------------|---------|-----------------|---------------------------|

1|-9~6-------6--11~7-------7-|-7~4-------4--9~6-------6-|-7-||
 |-----8---8---------9---9---|-----5---5--------8---8---|-9-||
 |-------8-------------8-----|-------6------------8-----|-8-||
 |---------------------------|--------------------------|---||
 |---------------------------|--------------------------|---||
6|---------------------------|--------------------------|---||

|-------4-----|------------------|-------------|--------|-----------------|-----------------|
|---------7~4-|------5/(7)-5~4---|-------------|--------|-----------4-5-4-|-5~4-----4-------| 
|-6/(8)-------|-%-%------------6-|-6~3---3-6~3-|--%-%-%-|-----3-4-6-------|-----6~4---6~4~3-|
|-------------|------------------|-----4-------|--------|-4-6-------------------------------|
|-------------|------------------|-------------|--------|-----------------------------------|
|-------------|------------------|-------------|--------|-----------------------------------|

*(trino)
|----------------|---------------------|---------|----------|--------11~12-||--------------|
|----------------|---------------------|---------|------8~9-|-11~12--------||-12-----------|
|----------------|---------------6-8~6-|-6~8~6~8-|-8~9------|--------------||-14/(16)-%-%--|
|-9~6---6~-%-%-%-|---------6-8-9-----------------|----------|--------------||--------------|
|-----7----------|-7~6-7-9-----------------------|----------|--------------||--------------|
|----------------|-------------------------------|----------|--------------||--------------|

*4
1|-11--12--11~12-------------|---------------------------------------------|
 |----------------14--12--11-|---------------------------------------------|
 |---------------------------|-11/(13)-13~11----11-----------|----------13-|
 |---------------------------|---------------13-----13~11----|-------------|
 |---------------------------|----------------------------14-|-14~11-14----|
6|---------------------------|-------------------------------|-------------|

|-12~11-------------------|------------------|-------------------|-----------------|
|-------14-12-14-12-11----|-11~9~8---9~8-----|-------------------|-----------------|
|----------------------13-|--------9-----9~8-|-9~8------8--------|-----------------|
|-------------------------|------------------|-----11~9---11~9~8-|-8~6~5---6~5-----|
|-------------------------|------------------|-------------------|-------7-----7~6-|
|-------------------------|------------------|-------------------|-----------------|

1|-----------------|-----------------|---------------4-||
 |-----------------|-----------------|---------4~5~7---||
 |-----------------|-----------------|-----4~6---------||
 |-----------------|-------------4~6-|-6~8-------------||
 |-7~6~4---6~4-----|-------4~6~7-----|-----------------||
6|-------7-----7~6-|-4~6~7-----------|-----------------||

2* 3*
|-16~12----12--16~12----12-17~12----12-|-%-|---------------------------|-------------|-%-|
|-------14-----------14----------14----|---|-16~12----12--16~12--17~12-|-16~12----12-|---|
|--------------------------------------|---|-------13------------------|-------13----|---|
|--------------------------------------|---|-----------------------------------------|---|
|--------------------------------------|---|-----------------------------------------|---|
|--------------------------------------|---|-----------------------------------------|---|

1|-12~11-------|-------------|-------------|-------------|----------------------------------------------------|
2|-------14-12-|-14~12-11----|-11----------|-------------|----------------------------------------------------|
3|-------------|----------13-|----13~12----|-12----------|-------------|--------------------------------------|
4|--------------------------------------14-|----14~13-11-|-14~13-11----|-11----------|------------------------|
5|-------------------------------------------------------|----------14-|----14-13~11-|-13~11--10----10--------|
6|-------------------------------------------------------|-------------|-------------|-----------12----12-11~9|

1|-----|-%-|---------||
 |-----|---|---------||
 |-G#5-|---|---------||
 |---------|-4/(5)---||
 |---------|---------||
6|---------|-------3-||
Suggest correction
Give kudos to tab author, rate the tab!
1 2 3 4 5
comments
print report bad tab
guest
Wanna post a correction for this tab? Suggest correction