Oops, an error
Loading. Please wait.

Con El Corazón Tab

23 views 1 this week
no commentswrite comment
1 2 3 4 5
3 more votes to show rating
add to favorites
×
Save as Personal and add changes to this tab that will be seen only by you. Learn more ›
×
You can save this tab as Personal to edit and correct it or add notes. All changes will be seen only by you. Learn more »
save as personal
new!
launch autoscroll
font size
0
reset
how to read this tab
guitar tuner
Autoscroll
slow
fast
+/-
esc
set tempo
stop
esta es mi transcripcion de esta cancion que esta poderosa!!
La afinacion es medio tono abajo
D# primera
A# segunda
F# tercera
C# cuarta
G# quinta
D# sexta
Intro: F - D# G#
       F - D# G# A#
la otra guitarra hace esto
D#||---------------------------|
A#||---------------------------|
F#||-------13----14--13--------|
C#||-----------------------14--|
G#||---------------------------|
D#||---------------------------|

---------------------------|
---------------------------|
---------------------------|
--L--16--------------------|
-----------14----16--------|
---------------------14----|

---------------------------|
---------------------------|
-------13----14--13----16--|
---------------------------|
---------------------------|
---------------------------|


----------------------------|
----------------------------|
--L--14----13----14--13~----|
----------------------------|
----------------------------|
----------------------------|

---------------------------|
---------------------------|
-------13----14--13--------|
-----------------------14--|
---------------------------|
---------------------------|


---------------------------|
---------------------------|
---------------------------|
--L--16--------------------|
-----------14----16--------|
---------------------14----|


---------------------------|
---------------------------|
-------13----14--13----16--|
---------------------------|
---------------------------|
---------------------------|

---------------------------||
---------------------------||
--L--14----16s--18~--------||
---------------------------||
---------------------------||
---------------------------||

luego hace un puente para entrar al coro que seria
C# - F - G# - C#9 (para caer entrar al coro hace esto en
                   la quinta cuerda G#--4-5-4--

Coro:

D#-F              aki hace solo en una cuerda C#--6-6-6-
      esta es tu cancion
D#-F        aki hace un arreglo C#--6-7-6-------
                                G#--------7-4---
      hoy cantaras con el corazon
C#9                   G#                A#
     deja ya... lo que impide que tu sueno sea real
D#-F              aki hace solo en una cuerda C#--6-6-6-
      esta es tu cancion
D#-F        aki hace un arreglo C#--6-7-6-------
                                G#--------7-4---

      hoy cantaras con el corazon
C#9        G#                       A#              F
      toma ya.. lo que necesitas para ser feliz

verso 1
la otra guitarra hace esto C#--7-6--4-4-|--7-6-4---- x3 y en la
cuarta vez hace esto   C#--7-6--4-4-|--7-9-7--

     F                   G#-C#9
en donde esta? su felicidad...
   D#9-F                                G#-C#9
porque ella siempre la busco sin encontrar
   D#9-F                                 G#-C#9
sus suenos volveran... el tiempo cambiara
   D#9-F                        G#-C#9            G#-C#9
el cielo se abrira.. y ahora toma su lugar...

Coro: otra vez igual

Verso 2

la otra guitarra hace esto C#--7-6--4-4-|--7-6-4---- x3 y en la
cuarta vez hace esto   C#--7-6--4-4-|--7-9-7--

     F                          G#-C#9
en donde esta? su esfuerzo hoy...
   D#9-F                        G#-C#9
porque el siempre intento ser el mejor
   D#9-F                      G#-C#9
su fuerza volvera... su vida cambiara
   D#9-F                     G#-C#9            G#-C#9
el cielo pasara.. y todo el llanto limpiara...

Coro: esta vez no se hace el ultimo F del coro xq se queda
en una parte tranquila que va asi:
la otra guitarra lleva un sonido clean con un poco de chorus
hace esto:
A#----5-----
F#------4--- solo esto repite la guitarra segunda y tercera cuerda

C#
canta...
D#          F
esta es tu cancion...
C#
canta...
D#             F
esta es tu cancion...
C#9
hoy revives de nuevo mi mente...
D#9
no vuelvas atras
C#9
hoy revives mi nueva esperanza
D#9                         C#9
no vuelvas atras....

puente para entrar al coro: C#-F-G#-C#9

coro y termina ;)

Dios les bendiga.
me costo un poquito sacar esta cancion y aki se las traigo
cualquier duda o comentario fam_menendez_lemus@
al rato traigo otra de ellos...
Suggest correction
Give kudos to tab author, rate the tab!
1 2 3 4 5
comments
print report bad tab
guest
Wanna post a correction for this tab? Suggest correction