Oops, an error
Loading. Please wait.

Química Normal Tab

35 views 1 this week
no commentswrite comment
1 2 3 4 5
3 more votes to show rating
add to favorites
launch autoscroll
font size
0
reset
how to read this tab
guitar tuner
×
Best way to learn
"Química Normal"
Autoscroll
slow
fast
+/-
esc
set tempo
stop
PSS AKI LES PONGO LA DE KIMI-K ANORMAL DE LOS IMPOSIBLES
KE PAREA MI FUE DE LAS MEJORES  BANDAS DE PUNK EN MEXICO....
PSS SALE AVER KOMO KEDA SEGUN IO STA BIEN

ESTAS SON LAS NOTAS DE TODA LA ROLA....

 (A)        (D)        (E)      (A)

E--5-5-55--/----------/----------/--5-.
A--7-7-77--/--5-5-5---/--7-7-7---/--7-.
D--7-7-77--/--7-7-7---/--9-9-9---/--7-.
G----------/--7-7-7---/--9-9-9---/----.
B----------/----------/----------/----.
e----------/----------/----------/----.


A
Desde hace algunos dias

D
mi cerebro anda mal

A
fui a ver al doc. ke me dijo

D
que tengo quimica anormal

E                              A
me estas causando un corto circuito

D        E         A
mi corazon esta loquito


A
Desde hace algunos dias

D
no me puedo concentrar

A
mi cabeza no funciona

D
no tengo quimica normal

E                         A
me estoy callendo desde lo alto

D           E             A
esta deprecion me esta matando


D
y eske

A      D          A
tengo quimica anormal

A       D         A
ya no puedo ni pensar

D            E                 A
me estas causando un corto circuito

D       E          A       D
mi corazon esta loquito


solo I

E-------------------------------------------------/
A-------------------------------------------------/
D-------------------------------------------------/
G--8/7/8/7/8/7/8/7/8/7/8/7/8/10--10--10/5-5/7/12--/
B-------------------------------------------------/
e-------------------------------------------------/

D,E.
A,D.....


A      D        A      <<<<  AKI SOLO ES EL BAJO
Tengo quimica anormal

A       D          A
ya no puedo ni pensar

D           E               A
me estas comiendo poco a pokito

D       E           A      D..   <<< AKA YA ENTRA LA LIRA...
mi corazon esta loquito


solo II

E-------------------------------------------------/
A-------------------------------------------------/
D-------------------------------------------------/
G--8/7/8/7/8/7/8/7/8/7/8/7/8/10-5-3-5-7/12--------/
B-------------------------------------------------/
e-------------------------------------------------/

D,E....A..

E-------------------------------------------------/
A-------------------------------------------------/
D-------------------------------------------------/
G--8/7/8/7/8/7/8/7/8/7/8/7/8/10-5-3-5-7/12--------/
B-------------------------------------------------/
e-------------------------------------------------/

D,E....A..FIN....


SALUDOS A TODA LA BOLA DE GANAPANES DE MIS AMIGOS
(REY, EBRICK, SIMI ENTRE OTROS) SI TIENEN ALGUNA DUDA
MI KORREO ES  jes_hina@
TAMBIEN ME SE LA DE "NO CAMBIES, DEJAR, POR MIS AMIGOS,
NUEVOS HORIZONTES Y OTRAS CUANTAS
PERO IA ME DIO WEVA PONERLAS AKI...SALE SE KUIDAN Y
  ARRIVA EL ROCK Y EL PUNK!!!!!
Suggest correction
Give kudos to tab author, rate the tab!
1 2 3 4 5
comments
print report bad tab
guest
You may want to rate the tab now too:
select rating
Wanna post a correction for this tab? Suggest correction