Oops, an error
Loading. Please wait.

El Sombrero De Saó Chords

22 views 1 this week
no commentswrite comment
1 2 3 4 5
2 more votes to show rating
add to favorites
launch autoscroll
font size
0
reset
transpose
0
reset
simplify chords
display chords
guitar tuner
Autoscroll
slow
fast
+/-
esc
set tempo
stop
Strumming
There is no strumming pattern for this song yet. and get +5 IQ
A RITMO DE TAKIRARI

INTRO.- G7-C-E7-Am// acompaña al punteo:

E--1-1-1-1--0-0-0-0--------0---------------0----------
B-3-3-3-3--1-1-1-1----3-3----3-1-0---0-1-3------------
G--------------------4-4-----------2------------------

E--1-1-1-1--0-0-0-0--------0--------------------------
B-3-3-3-3--1-1-1-1----3-3-----3--1-0------------------
G--------------------4-4------------2-----------------


Am                        E7
A esa pelada yo le regalaré
                            Am
para su santo un sombrero de saó
                                    E7
pa´ que se tape y me tape a mi también
                               Am
cuando yo la bese debajo el ocoró //


             G7                   C
Si en la tranquera me pilla su mamá,
         G7                  C
con el sombrero yo la saludaré.
        F     G7            C
oiga señora, yo le contestaré,
                E7                     Am
Señora, buenas tardes ¿como le va a usted?

                                          E7
-Oí, flojo sinvergüenza tira-vida ¿qué querés?
                                         Am
-a su hija doña ésta, ¿a quién más ha de ser?
                                   E7
-¿acaso con canciones la vas a mantener?
                                        Am
-con canciones no, señora: con este corazón


PUENTE IGUAL QUE INTRO Y REPITE.-
AL FINAL UNA SOLA VUELTA CON EL PUNTEO:


E--1-1-1-1--0-0-0-0--------0---------------0----------
B-3-3-3-3--1-1-1-1----3-3----3-1-0---0-1-3------------
G--------------------4-4-----------2------------------

E--1-1-1-1--0-0-0-0--------0--------------0-----------
B-3-3-3-3--1-1-1-1----3-3-----3--1-0--3-3-------------
G--------------------4-4------------2-----------------
Suggest correction
Give kudos to tab author, rate the tab!
1 2 3 4 5
comments
print report bad tab
guest
Wanna post a correction for this tab? Suggest correction