Oops, an error
Loading. Please wait.

Frágil Tab

version 1
version 1

Whole song

8 views 1 this week
no commentswrite comment
1 2 3 4 5
2 more votes to show rating
add to favorites
launch autoscroll
font size
0
reset
how to read this tab
guitar tuner
Autoscroll
slow
fast
+/-
esc
set tempo
stop
Help us to improve Ultimate-Guitar.com Take our survey!
×
Aquí está la introducción de esta excelente canción...
Espero que les guste!!!!!!


E--------------------------------|--------------------------------|
A--------------------------------|--------------------------------|
D--------------------------------|--11---------11---------11------|
G--7----------7----------7-------|--------------------------------|
B-----10---------10---------10---|------10---------10---------10--|
E---------10---------10----------|----------9----------9----------|


E--------------------------|---------------------------|
A--------------------------|---------------------------|
D--9--------9--------9-----|---------------------------|
G--------------------------|---------------------------|  
Suggest correction
Give kudos to tab author, rate the tab!
1 2 3 4 5
comments
print report bad tab
guest
You may want to rate the tab now too:
select rating
Wanna post a correction for this tab? Suggest correction