Oops, an error
Loading. Please wait.

Dylan Ñil Tab

2 views 1 this week
no commentswrite comment
1 2 3 4 5
3 more votes to show rating
add to favorites
launch autoscroll
font size
0
reset
how to read this tab
guitar tuner
Autoscroll
slow
fast
+/-
esc
set tempo
stop
Help us to improve Ultimate-Guitar.com Take our survey!
×
Y siguen los enigmas en este nuevo disco de indigentes,
ahora el nombre o la persona que no sabemos a quien se refieran 
es alguien llamado "Dylan". Bueno,supongo que es otro
personaje sacado de la amplia literatura de los
miembros de este grupo.
Esta rola es una balada muy sencilla, creo 
que indigentes quizo hacer simplemente algo 
romantico y tremendamente emocional sin necesidad 
de componer una musica alusinante y genial como
acostumbran. Pero eso si, la letra es una obra maestra.

INTRO:

e|-----------5--------------------------------------------5-----------
B|--5--7--8-----8--7--5--7--8--7-----5--0--5--5--5--7--8-----8--7--5--
G|--------------------------------7-----------------------------------
D|--------------------------------------------------------------------
A|--------------------------------------------------------------------
E|--------------------------------------------------------------------

e|--------------5--5^7----
B|--7--8--7--8------------
G|------------------------
D|------------------------
A|------------------------
E|------------------------


VERSOS:

e|-12----12----12----8---8---8---10----10----10---12----12----12------
B|---12----12----12---8---8---8----10----10----10---12----12----12----
G|-----12----12--------9---9---------11----11---------12----12--------
D|--------------------------------------------------------------------
A|--------------------------------------------------------------------
E|--------------------------------------------------------------------


e|-12----12----12----8---8---8---10----10----10----7---7---7----------
B|---12----12----12---8---8---8----10----10----10---7---7---7---------
G|-----12----12--------9---9---------11----11--------8---8------------
D|--------------------------------------------------------------------
A|--------------------------------------------------------------------
E|--------------------------------------------------------------------


SOLO #1:

e|--------------------------------------------------------------------
B|--------------------------------------------------------------------
G|--------------------------------------------------------------------
D|--9^10-(9)----9^10-(9)----------7-----------------------------------
A|-----------7---------------9-10---10-9----7-------------------------
E|-----------------------10--------------10---------------------------


SOLO #2:

e|-----------------------------------------------19^20-(19)-----------
B|----------------------------------------------------------17--------
G|--------------------------------------------------------------------
D|--9^10-(9)----9^10-(9)----------7-----------------------------------
A|-----------7---------------9-10---10-9----7-------------------------
E|-----------------------10--------------10---------------------------

e|-----------17-------------------------------------------------------
B|--17-19-20----20-19----17---12-----10-------------------------------
G|--------------------19------14^16--12^14--12-9-11-12-11-12-11-12-11-
D|--------------------------------------------------------------------
A|--------------------------------------------------------------------
E|--------------------------------------------------------------------

e|--12-----------------------------------------0----------------------
B|--15^17----------------------------0-1-0-1-3------------------------
G|------------------------------0-2-----------------------------------
D|---------------------0--0-2-4---------------------------------------
A|---------------0-2-3------------------------------------------------
E|---------0-2-3------------------------------------------------------

e|--12------14-15-17-15-14-15-17-17^19--------------------------------
B|--15^17-------------------------------------------------------------
G|--------------------------------------------------------------------
D|--------------------------------------------------------------------
A|--------------------------------------------------------------------
E|--------------------------------------------------------------------


ACORDES:

     E5     D5     C5     B5     A5
e|---X------X------X------X------X------------------------------------
B|---X------X------X------X------X------------------------------------
G|---9------7------5------4------2------------------------------------
D|---9------7------5------4------2------------------------------------
A|---7------5------3------2------0------------------------------------
E|---X------X------X------X------X------------------------------------

LETRA:

Verso 1:
Cerre los ojos por un momento, y te vi a ti
parada alli con tacones altos, bailando solo para mi.
imagenes que solo eran sueños de mi intimidad
que mas tarde se reflejaban con una gran manuela.
No le hagas caso a estos patanes, bailame solo a mi
yo tengo carro y automovil propio, que serian para ti.

Coro:
Yo soy Dylan, te voy a conquistar...
Yo soy Dylan, te voy a conquistar...

Verso 2:
Tengo una chamba en el seguro social, que mas puedes pedir
estos cerdos no tenes ni donde caerse muertos, te lo voy a repetir.
No le hagas caso a estos patanes, bailame solo a mi
yo tengo carro y automovil propio, que serian para ti.
Suggest correction
Give kudos to tab author, rate the tab!
1 2 3 4 5
comments
print report bad tab
guest
You may want to rate the tab now too:
select rating
Wanna post a correction for this tab? Suggest correction