Oops, an error
Loading. Please wait.

Sólo Juegas Tab

by Indigo
11 views 1 this week
no commentswrite comment
1 2 3 4 5
3 more votes to show rating
add to favorites
×
Save as Personal and add changes to this tab that will be seen only by you. Learn more ›
×
You can save this tab as Personal to edit and correct it or add notes. All changes will be seen only by you. Learn more »
save as personal
new!
launch autoscroll
font size
0
reset
how to read this tab
guitar tuner
Autoscroll
slow
fast
+/-
esc
set tempo
stop
Intro:

Inicio Riff 1
e|---------------------------------------------------------------------|
B|------11--11--------11---13-------11--------11---13---11---------11--|
G|-/10-----------10-------------10-------10------------------10--------|
D|---------------------------------------------------------------------|
A|---------------------------------------------------------------------|
E|---------------------------------------------------------------------|

e|---------------------------------------------------------------------|
B|------11--11--------11---13-------11--------11---13---11---------11--|
G|-/10-----------10-------------10-------10------------------10--------|
D|---------------------------------------------------------------------|
A|---------------------------------------------------------------------|
E|---------------------------------------------------------------------|

e|------10--10-----11/10-----10------10-----11/10---|
B|-/11----------11--------11------11-----11---------|
G|--------------------------------------------------|
D|--------------------------------------------------|
A|--------------------------------------------------|
E|--------------------------------------------------|

e|---11/10----13--11/10-----13----------------------|
B|---------11------------11----13^13^13^13^13^13^---|
G|--------------------------------------------------|
D|--------------------------------------------------|
A|--------------------------------------------------|
E|--------------------------------------------------|
Fin Riff 1


A#
e|---------------|---------------|---------------|---------------|
B|-------------6-|-------------6-|-------------6-|-------------6-|
G|-8--8--8--8----|-8--8--8--8----|-8--8--8--8----|-8--8--8--8----|
D|---------------|---------------|---------------|---------------|
A|---------------|---------------|---------------|---------------|
E|---------------|---------------|---------------|---------------|


A#
Dame una leve claridad de este sentimiento
A#
dejame en libertad.. de tus
   Cm                       D#           A#
           LAbios         sin cabellos
e|--------------|------------------|--------------|
B|--------------|------------------|--------------|
G|-7/8/7/8/7----|-7/8/7/8/7--------|-7/8/7--------|
D|------------8-|------------8/12--|--------6-6/8-|
A|--------------|------------------|--------------|
E|--------------|------------------|--------------|

A#
Puede ser la realidad la que te cubre
e|------------------------------------|
B|------------------------------------|
G|-------------7/8/7------------------|
D|-----------------------------6-6/8--|
A|------------------------------------|
E|------------------------------------|

A#
deja   que  te   cubre   yo, verte
e|------------------------------------|
B|------------------------------------|
G|-------------7/8/7------------------|
D|-----------------------------6-6/8--|
A|------------------------------------|
E|------------------------------------|

       Cm            D#        A#
              sin culpas ni deseos
e|--------------|------------------|----------------11--10----|
B|--------------|------------------|-----------/11---------11-|
G|-7/8/7/8/7----|-7/8/7/8/7--------|-7/8/7--------------------|
D|------------8-|------------8/12--|--------------------------|
A|--------------|------------------|--------------------------|
E|--------------|------------------|--------------------------|


                   D#      Cm        Gm   F
                   ni engaños y en silencio
e|-----------------------------------------------------------|
B|-11^-------------9^----------------8/9/8/9/8---------------|
G|-----------------------------------------------10--8--10--|
D|-----------------------------------------------------------|
A|-----------------------------------------------------------|
E|-----------------------------------------------------------|


Con Riff 1

A# D#     A#     D#   A#      D#  A#
Juegas juegas, nena   solo juegas
      Cm     D#     A#   D#
al amante de mis sueños
        Cm   Gm       D#
a la novia sin deseos


      A#            Cm          D#
e|--------------------------------------|
B|-------------6----6/4/6/8-----8^------|
G|----8/7/8-----------------------------|  x 2
D|--------------------------------------|
A|--------------------------------------|
E|--------------------------------------|


A#
Di que ya no puedes mas, da igual ya no te creo
e|-----------------------------------------------|
B|-----------------------------------------------|
G|-------------7/8/7-----------------------------|
D|----------------------------------------6-6/8--|
A|-----------------------------------------------|
E|-----------------------------------------------|

A#
tu que odias sin piedad, odias
e|---------------------------------|
B|---------------------------------|
G|-------------7/8/7---------------|
D|---------------------------------|
A|---------------------------------|
E|---------------------------------|

      Cm              D#          A#
                los latidos y los cuerpos
e|--------------|-------------------------|----------------11--10----|
B|--------------|-------------------------|-----------/11---------11-|
G|-7/8/7/8/7----|---7/8/7/8/7-------------|-7/8/7--------------------|
D|------------8-|-----------------8/12----|--------------------------|
A|--------------|-------------------------|--------------------------|
E|--------------|-------------------------|--------------------------|

                   D#           Cm         Gm           F
                   suspiros      y       an   he      los
e|-----------------------------------------------------------|
B|-11^-------------9^----------------8/9/8/9/8---------------|
G|-----------------------------------------------10--8--10--|
D|-----------------------------------------------------------|
A|-----------------------------------------------------------|
E|-----------------------------------------------------------|


Con Riff 1

A# D#     A#     D#   A#      D#  A#
Juegas juegas, nena   solo juegas
      Cm     D#     A#   D#
al amante de mis sueños
        Cm   Gm       D#
a la novia sin deseos


    A#              Cm                     D#
e|----18---18---18---18---18---18---18----------------------------|
B|-21^--21^--21^--21^--21^--21^--21^------20--21--20--21--20--18--|
G|----------------------------------------------------------------| x4
D|----------------------------------------------------------------|
A|----------------------------------------------------------------|
E|----------------------------------------------------------------|


A# D#     A#     D#   A#      D#  A#
Juegas          nena   solo juegas....


    A#         Cm           D#
e|-----18-----18-----18-----------------------|
B|-21^----21^----21^--------20--21--20----18--|
G|--------------------------------------------| x4
D|--------------------------------------------|
A|--------------------------------------------|
E|--------------------------------------------|

Repetir intro
Suggest correction
Give kudos to tab author, rate the tab!
1 2 3 4 5
comments
print report bad tab
guest
Wanna post a correction for this tab? Suggest correction