Oops, an error
Loading. Please wait.

Aburrimiento Sin Fín Chords

11 views 1 this week
no commentswrite comment
1 2 3 4 5
3 more votes to show rating
add to favorites
×
Save as Personal and add changes to this tab that will be seen only by you. Learn more ›
×
You can save this tab as Personal to edit and correct it or add notes. All changes will be seen only by you. Learn more »
save as personal
new!
launch autoscroll
font size
0
reset
transpose
0
reset
display chords
guitar tuner
Autoscroll
slow
fast
+/-
esc
set tempo
stop
Strumming
There is no strumming pattern for this song yet. and get +5 IQ
INTRO:     D#                      A#
-------3-4-6-6-6-6-6-4-4-4-4-3-4-3---------6-6-6-6--
-0h4h6-----------------------------4-4-4-4----------
----------------------------------------------------
----------------------------------------------------
----------------------------------------------------
----------------------------------------------------

 C                       G#              A#                D#
---------------------------------6----------------------------
----------66-88-66---------6-8-9---9-8-6-------6-8-6----------
-55-77-88----------88-77-8---------------8-7-8-------8-7-8~~--
--------------------------------------------------------------
--------------------------------------------------------------
--------------------------------------------------------------

VERSO:
D#
Ya no me queda dignidad estoy cayendo,
C         A#        C            A#
no hay para estudiar tengo que trabajar?
Soy un ingrato vigilante del momento
Comienzo a descifrar cantando esta canción?

CORO:
D#                      A#
   La vida a veces no va bien
                     C#
Intento reforzar lo que yo soy
              G#
y no me siento mal
                    D#
Tu sabes que es verdad
             A#
y no me rendiré
               C#                     G#
Hasta no demostrarte que tenía una razón
  A#            D# (con PM de nuevo)
y no me equivoquéeeee?

VERSO 2 (1/2):
Confieso que mi condición no tiene vuelta
Estoy muy lejos ya para volver atrás?


CORO:.........
               C#                     G#
Hasta no demostrarte que tenía una razón

(tocado oooox)
A#              G#
  Quieres expandir tus ideas?
A#           G#                     A# (tocado normal) G#
Te conozco bien, quieres salir a volaaaaaaaaaaaaaaaaaaaar
    A#
a volaaaaaaaaar
     G#
Y tú sabes que yo te acompañaré?

CORO:........
               C#                     C
Hasta no demostrarte que tenía una razón
  B            G#     A#   C
y no me equivoquéeeee?
B         G#     A#   C    B
    ayudameeee

(sigue tocando: G#  A#  C  B)
---------6----------------------------
---6-8-9---9-8-6-------6-8-6----------
-8---------------8-7-8-------8-7-8~~--
--------------------------------------
--------------------------------------
--------------------------------------


pa mi esta perfecta.. ojala les sirva
AxT_TANTEN LOS CHUNCHOS!!
Suggest correction
Give kudos to tab author, rate the tab!
1 2 3 4 5
comments
print report bad tab
guest
Wanna post a correction for this tab? Suggest correction