Oops, an error
Loading. Please wait.

Aburrimiento Sin Fín Bass

14 views 1 this week
no commentswrite comment
1 2 3 4 5
3 more votes to show rating
add to favorites
launch autoscroll
font size
0
reset
guitar tuner
Autoscroll
slow
fast
+/-
esc
set tempo
stop
Nota:
~~: dejar sonar.

1.                                            2.
Intro
G|-------------------------------------------|-------------------------|
D|-------------------------------------------|-------------------------|
A|-6666-6666-4444-4444-3333-3333-------------|-6666-6666-6666-6666-----|
E|-------------------------------4444-6666---|-------------------------|

3.
Verso
G|--------------------------------------------|
D|--------------------------------------------|
A|-6666-6666-6666-6666-3333-1111-3333-1111----|
E|--------------------------------------------|

4.
G|--------------------------------------------|
D|--------------------------------------------|
A|-6666-6666-6666-6666-3333-1111-3333-1-------|
E|--------------------------------------------|

5.
Koro
G|--------------------------------------------|
D|--------------------------------------------|
A|-6666-6666-----------4444-4444--------------|
E|-----------6666-6666-----------4444-4444----|

6.
G|--------------------------------------------|
D|-------------------------------6666-6666----|
A|-6666-6666-----------4444-4444--------------|
E|-----------6666-6666------------------------|

7.
Pre verso. (x2)
G|---------------------|
D|---8---6---5---6-----|
A|-66--66--66--66------|
E|---------------------|

se repite el Nº 4. del verso.

5.
Koro
G|--------------------------------------------|
D|--------------------------------------------|
A|-6666-6666-----------4444-4444--------------|
E|-----------6666-6666-----------4444-4444----|

8.
G|--------------------------------------------|
D|--------------------------------------------|
A|-6666-6666-----------4444-4444--------------|
E|-----------6666-6666-----------4444-4444----|

9.
[kieres expandir tus ideas...]
Outro
G|---------------------------------------|
D|---------------------------------------|
A|---------------------------------------|
E|-66666-66666-44444-44444-66666-66666---|

10.
[kieres salir a]
G|--------------------|
D|-------66-55-33-55--|
A|--------------------|
E|-88888--------------|

11.
[...volaaaar....] (inmediatamente despues del anterior) (x2)
G|----------------------------------------------------|
D|-88-66-55----88-66-55----66-55-33-55-66-55-33-55----|
A|----------88----------66----------------------------|
E|----------------------------------------------------|

5.
[la vida aveces...]
G|--------------------------------------------|
D|--------------------------------------------|
A|-6666-6666-----------4444-4444--------------|
E|-----------6666-6666-----------4444-4444----|

12.
[tu sabes ke es verdad...]
G|--------------------------------------------|
D|--------------------------------------------|
A|-6666-6666-----------4444-4444-3333-2222----|
E|-----------6666-6666------------------------|

13.
[ekivokeeeee.] (x4)
G|------------------------|
D|------------------------|
A|-6666------3333-2222----|
E|------6666--------------|

14.
G|----------------------------|
D|----------------------------|
A|-66-66-------33-33-22-22----|
E|-------66-66----------------|

14.
G|---------------------------------------|
D|---------------------------------------|
A|-66-66-------6~~-6~~-6~~-6~~-6---6~~---|
E|-------66-66-------------------6-------|

FINNNNNNNN.

Otra tab mas de inestable.
voi a tratar de ir llenando este espacio
ya ke son pokos los ke aportan T.T
ojala ke te buena osino = voten xD, preo voten pls.
Suggest correction
Give kudos to tab author, rate the tab!
1 2 3 4 5
comments
print report bad tab
guest
You may want to rate the tab now too:
select rating
Wanna post a correction for this tab? Suggest correction