Oops, an error
Loading. Please wait.

No Hay Después Tab

8 views 1 this week
no commentswrite comment
1 2 3 4 5
3 more votes to show rating
add to favorites
launch autoscroll
font size
0
reset
how to read this tab
guitar tuner
×
Best way to learn
"No Hay Después"
Autoscroll
slow
fast
+/-
esc
set tempo
stop
INTRO:
       D#           A#                C#            G#
e--------------------------------------------------------------
b--------------9-8--------------9-8---9-9-9-9-9-8---9-9-9-9-9--
g------8-8-8-8-----8-10-10-10-8-----8-8-8-8-8-----8-8-8-8-8-8--
d-8-10---------------------------------------------------------
a--------------------------------------------------------------
e--------------------------------------------------------------

1) (Con PM)
D#
Me he dado cuenta de una verdad
C#
yo se muy bien lo que tengo que hacer
C                      G-G#  G-A#
me gusta vivir a mi manera...
D-D#
soy un hombre complicado tal vez,
C#
no me preocupa si me puedes ver,
C                     G-G#   G-G#
yo no hago planes muy lejanos.
A#                  G#
Tienes ke vivir porque la vida continúa...

Coro:
D#     A#   C#
No hay después...
G#         D#         A#
intentarlo no vale la pena
       C#          G#
si no tienes algo que perder,
D#     A#   C#
no hay después...
G#           D#        A#
debes preguntarte si realmente haz dado
 C#          G#
todo lo que puedes dar.

1)
No es malo ser un perdedor,
si tú en ello eres el mejor,
yo sigo siendo el mismo idota...
trabajo duro para no trabajar,
y me pregunto hasta cuando podré...
en mi camino no puedo encontrar...
kansado de korrer en círculos y no avanzar...

CORO:.....

SOLO:
       PM    PM    PM
--------------------------
--------------------------
--------------------------
-8-6-x-----7-----7-----7--    x4
-6-4-x-6-6---6-6---6-6----
-------6-6---6-6---6-6----


----------------------------/13-11--
---------------------/13-11---------
------------9/10-8-8----------------
-----8-10-8-------------------------
-/10--------------------------------
------------------------------------


----------------------------------------
--9-8-8-8------9-9-8-8-6-6-x-6-6-8-8-8--
--8-8-8-8--x2--8-8-8-8-8-8-8-8-8-8-8-8--
----------------------------------------
----------------------------------------
----------------------------------------


-----------------------------------------------------
-13-----13----16----14-13----------------------------
-----13----13----13--------x3--13-13-12-12-10-10-----
-------------------------------------------------13--
-----------------------------------------------------
-----------------------------------------------------


--------------------------------------
-11-11-9-9-8-8--------11-11-11-11-11--
-8--8--8-8-8-8-8--x3--8--8--8--8--8---
--------------------------------------
--------------------------------------
--------------------------------------

FINAL:                     (sigue tocando ultima parte del SOLO)
D#     A#   C#   G#
No hay después
no hay después
no hay después
no hay después

D#   A#   C#   G#  x2  --> D#  D#  D#  D#


nose si esta 100% perfecta pero tocada con
guitarra electrica y la distorcion debida
keda super piola
good luck!
Suggest correction
Give kudos to tab author, rate the tab!
1 2 3 4 5
comments
print report bad tab
guest
You may want to rate the tab now too:
select rating
Wanna post a correction for this tab? Suggest correction