Oops, an error
Loading. Please wait.

No Sé Por Que Chords

8 views 1 this week
no commentswrite comment
1 2 3 4 5
3 more votes to show rating
add to favorites
launch autoscroll
font size
0
reset
transpose
0
reset
display chords
guitar tuner
Autoscroll
slow
fast
+/-
esc
set tempo
stop
Help us to improve Ultimate-Guitar.com Take our survey!
×
INTRO: F#
--------------------------------------
--------------------------------------
-----6-----6---6-----6-----4---4---x3-
-4-4---4-4---4---4-4---4-4---4--------
--------------------------------------
--------------------------------------


--------------------------------------
--------------------------------------
-----6-----6---6-----6---------3h4h6--
-4-4---4-4---4---4-4---4-3h4h6--------
--------------------------------------
--------------------------------------


VERSO: (sigue tocando lo de la intro)
F#                  A
dinero no quiero tener
                       E
no es importante para mi
                      F#
eso es mentira ya lo se

mil cosas yo quiero tener
amigos y mucho poder
fama gloria y un reloj

CORO:
B         C#      F#           D#
quiero saber porque las cosas son asi
B          C#            F#   E-F#   A-B
soy un borracho y un ladron
B       C#       D#
mi vida nooo encuentra direccion
 E                        C#
soy genial o soy un perdedor
muy pronto lo sabre

INTRO:......

VERSO 2:
la vida voy a disfrutar
con mis amigos de verdad
mi novia me acompañara

voy contra todo lo que fue
pero no contra lo que sera
al destino quiero desafiar


CORO 2:
quiero saber porque las cosas son asi
soy un borracho y un ladron
mi vida nooo encuentra direccion
 E                        C#
soy genial o soy un perdedor
                B     C#           B
no quiero madrugar, nose como empezar
      C#        F#               D#
yo quiero enfrentarme a mi mismo ya
             B              C#
solo darme cuenta si es verdad
                    F#
lo que quiero entregar

INSTRUMENTAL:
         (1:F# 2:F 3:E)   B        C#
-13-14--------------------13-14----13-14-----
-------14--14-14-14---x3--------14-------14--
---------------------------------------------
---------------------------------------------
---------------------------------------------
---------------------------------------------

         (1:F# 2:E 3:B 4:C#)
-13-14---------------------
-------14--------------x4--
-----------11-11-11--------
---------------------------
---------------------------
---------------------------

CORO:......
nadie me quiere ver

INTRO:.....


kedo filete ojala alguien mas aporte de este grupo
q esta muy weno pero nadie sube naa...

GRANDE CONCEEE
Suggest correction
Give kudos to tab author, rate the tab!
1 2 3 4 5
comments
print report bad tab
guest
You may want to rate the tab now too:
select rating
Wanna post a correction for this tab? Suggest correction