Oops, an error
Loading. Please wait.

No Sé Por Que Tab

2 views 1 this week
no commentswrite comment
1 2 3 4 5
3 more votes to show rating
add to favorites
launch autoscroll
font size
0
reset
how to read this tab
guitar tuner
×
Best way to learn
"No Sé Por Que"
Autoscroll
slow
fast
+/-
esc
set tempo
stop
aqui les va el ultimo single del disko tratando de entender...
esta buena!exelente! LA GUITARRA ESTA AFINADA EN RE# POR LO QUE ESTA
TRANSCRIPCION ESTA PARA SER EJECUTADA EN ESA AFINACION...
ESTA BUENA....SI ME EKIVOKE..SON DETALLES..
ahy se las arreglan con los tiempos!...=)
eso ! disfrute !


|-----------------------------------------------------|
|-----------------------------------------------------|
|-0-0-7-0-0-5-0-0-4-0-5-4-2-0(x3)-0-0-2-0-4-0-5-4-2-0-|
|-----------------------------------------------------|
|-----------------------------------------------------|
|-----------------------------------------------------|


se acaba el tiempo....              se agota la ultima
|-----------------------------------------------------|
|-----------------------------------------------------|
|-----------------------------------------------------|
|-----------------------------------9-9-9-9--5-5-5-5--|
|-5-5-5-5--3-2-0---5-5-5-5--3-0-2---7-7-7-7--3-3-3-3--|
|-3-3-3-3--------3-3-3-3-3--------3-------------------|
PM.......          PM.....


Cerveza!
|-------------------------------------------------------|
|-------------------------------------------------------|
|-------------------------------------------------------|
|-------------------------------------------------------|
|--3-3-3-3--3-2-0---------------------------------------|
|--5-5-5-5--------3-------------------------------------|
PM........

   NOse        porque         la fiesta termino!
|------------------------------------------------------|
|--3-3-3-3-------------(x3)----------------------------|
|--2-2-2-2-------------------5-5-5-5--------------(x2)-|
|--0-0-0-0----5-5-5-5--------5-5-5-5-5-5-5-5-5---------|
|-------------5-5-5-5--------3-3-3-3-5-5-5-5-5---------|
|-------------3-3-3-3----------------3-3-3-3-3---------|


|-----------------------------------------------------|
|-----------------------------------------------------|
|-0-0-7-0-0-5-0-0-4-0-5-4-2-0(x3)-0-0-2-0-4-0-5-4-2-0-|
|-----------------------------------------------------|
|-----------------------------------------------------|
|-----------------------------------------------------|


esta parte es la q toka solo el bajo...

voy resignado...a trabajar...
recuerdo cuando yo pensaba....


  dinero no quiero tener....
|---------------------------------------------------12-13---|
|----------------------------(x3)--8-8-8-8-8-8-8---------13~~-|
|---7-7-7-7-7-7-7-7------5-5-------7-7-7-7-7-7-7------------|
|---5-5-5-5-5-5-5-5------3-3-------5-5-5-5-5-5-5------------|
|-----------------------------------------------------------|
|-----------------------------------------------------------|
  PM.........................


   nose      porque....          la fiesta termino
|-------------------------------------------------------|
|--3-3-3-3-------------(x3)-----------------------------|
|--2-2-2-2-------------------5-5-5-5--------------(x2)--|
|--0-0-0-0----5-5-5-5--------5-5-5-5-5-5-5-5-5----------|
|-------------5-5-5-5--------3-3-3-3-5-5-5-5-5----------|
|-------------3-3-3-3----------------3-3-3-3-3----------|

|-----------------------------------------------------|
|-----------------------------------------------------|
|-0-0-7-0-0-5-0-0-4-0-5-4-2-0(x3)-0-0-2-0-4-0-5-4-2-0-|
|-----------------------------------------------------|
|-----------------------------------------------------|
|-----------------------------------------------------|


|------------------------------------------------------|
|--8~~-------------------------------------------------|
|--7~~-------------------------------------------------|
|--5~~-------------------------------------------------|
|------------------------------------------------------|

~=dejar sonar..

quejas comentarios a mi msn...rodrigoj218@
Suggest correction
Give kudos to tab author, rate the tab!
1 2 3 4 5
comments
print report bad tab
guest
You may want to rate the tab now too:
select rating
Wanna post a correction for this tab? Suggest correction