Oops, an error
Loading. Please wait.

Dificil Sin Tí Tab

14 views 1 this week
no commentswrite comment
1 2 3 4 5
3 more votes to show rating
add to favorites
launch autoscroll
font size
0
reset
how to read this tab
guitar tuner
Autoscroll
slow
fast
+/-
esc
set tempo
stop
Help us to improve Ultimate-Guitar.com Take our survey!
×
INTRO: LA5 (PM) - LA5  - MI5 - RE5  (x4)  LA5 ( deja sonar) LA5 (PM)

E---------------------------------------
B---------------------------------------
G----------------9999--7777-------------
D-7777--7-77777--9999--7777-------------
A-7777--7-77777--7777--5555-------------
E-5555--5-55555-------------------------
  ....
E---------------------------------------
B---------------------------------------
G---------------------------------------
D-7-----------------777777--------------
A-x-----------------777777--------------
E-5-----------------555555--------------
                    ......
LA5 (Deja sonar)
Mirando al cielo tu rostro llego a ver

Como olvidarlo tan delicado es
LA5 (DEJA SONAR)
Eres el complemento que necesito

Hagamos de esta relación un recuerdo único

Puente : LA5

E-------------------------------------------
B-------------------------------------------
G-------------------------------------------
D--7-77-77-7-77---7777----------------------
A--x-xx-xx-x-xx---7777----------------------
E--5-55-55-5-55---5555----------------------
                  ....
ESTRIBILLO:
  LA5  MI5  RE5  Fsus5
E-------------------------------------------
B-------------------------------------------
G-------9----7---11-------------------------
D-7-----9----7---11-------------------------
A-7-----7----5----9-------------------------
E-5-----------------------------------------

LA5                  MI5       RE5
Haré lo que sea para no perderte
LA5                   MI5       RE5
Haré lo que sea para entenderte
LA5                FASUS5 MI5
Seria difícil seguir sin ti
LA5                  MI5        RE5
Abrigado protegido me haces sentir

INTRO: (X2)

(Bajo)
Fue en el mes de Mayo que te conocí
(Bajo)
No sabia si hablarte y sonreí
LA5(DEJA SONAR)
Tus ojos brillaron queriendo algo decir

Me besaste me abrazaste

PUENTE:
LA5
Me aferre a ti
LA5
No quise partir
LA5
Solo confundí
LA5
Me aferre a ti

LA5(PARA)            MI5       RE5
Haré lo que sea para no perderte
LA5                   MI5       RE5
Haré lo que sea para entenderte
LA5               FASUS5 MI5
Seria difícil seguir sin ti
LA5                  MI5        RE5
Abrigado protegido me haces sentir

Puente: LA5

E---------------------------------------
B---------------------------------------
G---------------------------------------
D-7-------------------------------------
A-x-------------------------------------
E-5-------------------------------------

ESTRIBILLO

OUTTRO: LA5 (muchas veces) MI5 RE5 LA5(DEJA SONAR)

E---------------------------------------
B---------------------------------------
G---------------------------------------
D-7777777777777777777777777777777777----
A-xxxxxxxxxxxxxxxxxxxxxxxxxxxxxxxxxx----
E-5555555555555555555555555555555555----

E---------------------------------------
B---------------------------------------
G---999--777----------------------------
D---999--777--7...----------------------
A---777--555--7...----------------------
E-------------5...----------------------
Suggest correction
Give kudos to tab author, rate the tab!
1 2 3 4 5
comments
print report bad tab
guest
You may want to rate the tab now too:
select rating
Wanna post a correction for this tab? Suggest correction