Oops, an error
Loading. Please wait.

Lejos Estás Tab

11 views 1 this week
no commentswrite comment
1 2 3 4 5
3 more votes to show rating
add to favorites
launch autoscroll
font size
0
reset
how to read this tab
guitar tuner
×
Best way to learn
"Lejos Estás"
Autoscroll
slow
fast
+/-
esc
set tempo
stop
INTRO: (? PM)

E------------------------------
B------------------------------
G---6666666666666------6--------
D---xxxxxxxxxxxxx------x-------
A---4444444444444------4-------  (El ultimo lo deja sonar)
E------------------------------
   ?????????????..
E-------------------------------------------
B-------------------------------------------
G----66666666----------------66666666-------
D----66666666----44444444----66666666-------
A----44444444----44444444----44444444-------
E----------------22222222-------------------

E---------------------------------------------
B---------------------------------------------
G---------------------------------------------
D----XX--6----XX---6--------------------------
A----XX--6----XX---6--------------------------
E----XX--4----XX---4--------------------------

Csus ( Deja sonar )
Quiero llegar donde nunca te tuve
                                       Gsus
Y quiero lograr que sea el momento perfecto
Csus (PM)                       Fsus
Quiero mirar atrás y creer que vos estas allá
Csus                Fsus
Y quiero recordar todos los buenos momentos


ESTRIBILLO
    Csus     C            Fsus      Gsus
E-----------------------------------------------
B-----------------------------------------------
G--66666666--66666666---------------------------
D--66666666--66666666----44444444--66666666-----
A--44444444--33333333----44444444--66666666-----
E------------------------22222222--44444444-----

Csus    C
Lejos estas
Fsus                 Gsus
Llega el final y no te encuentro
Csus    C
Lejos estas
Fsus                 Gsus
Llega el final y no te encuentro

INTRO : X2

ESTROFA 1
NOTA: Las 2 primeras vueltas con distorsion
Y las otras 2 con P.M.
En las partes de PM se escucha otra guitarra
Q hace esto:

E-----------------------------------
B-----------------------------------
G-----------------------------------
D-6-----6------6-----6------6-------
A----44----44----44----44-----4-----
E-----------------------------------

E-----------------------------------------
B-----------------------------------------
G-----------------------------------------
D-----------------------------------------
A---4------4-------4------4--------4------
E------22-----22-----22------22--------2--

ESTRIBILLO

PUENTE:
E-----------------------------------------
B-----------------------------------------
G-----------------------------------------
D--00-22-33-44-66-44-33-22--------66666---
A-----------------------------------------
E-----------------------------------------

Csus (DEJA SONAR)

Yo se que en el fondo vos sabes

Que si pudiera otra vez
Csus (PM)            Fsus
Te buscaría pero se que ya no estas
Csus                         Fsus (DEJA SONAR)
Mejor es recordarte no te quiero olvidar

Gsus (PM)

ESTRIBILLO


Csus    C
Lejos estas
Fsus                 Gsus
Llega el final y no te encuentro
Csus    C
Lejos estas
Fsus                 Gsus
Llega el final y no te encuentro

Csus    C
Lejos estas
Fsus                 Gsus
Llega el final y no te encuentro
Csus    C
Lejos estas
Fsus                 Gsus
Llega el final y no te encuentro
Fsus                 Gsus
Llega el final y no te encuentro
Fsus                 Gsus
Llega el final y no te encuentro
Fsus                 Gsus         Csus (DEJA SONAR)
Llega el final y no te encuentro
Suggest correction
Give kudos to tab author, rate the tab!
1 2 3 4 5
comments
print report bad tab
guest
You may want to rate the tab now too:
select rating
Wanna post a correction for this tab? Suggest correction