Oops, an error
Loading. Please wait.

No Podemos Seguir Así Bass

12 views 1 this week
no commentswrite comment
1 2 3 4 5
3 more votes to show rating
add to favorites
launch autoscroll
font size
0
reset
guitar tuner
×
Best way to learn
"No Podemos Seguir Así"
Autoscroll
slow
fast
+/-
esc
set tempo
stop
INTRO
G----------------------------------
D----------------------------------
A-----33-55-33---------------------
E--00------------------------------

ESTRIBILLO
G----------------------------------
D----------------------------------
A-55555555555----------------------
E-------------33333333333----------

G----------------------------------
D----------------------------------
A-55555555555----------------------
E-------------3--------------------

G----------------------------------
D----------------------------------
A-55555555555----------------------
E-------------33333333333----------

G----------------------------------
D----------------------------------
A-55555555555----------------------
E-------------33333333333----------


ESTROFA

G----------------------------------
D----------------------------------
A-----33-55-33---------------------
E--00------------------------------X3

G-----------------------------------
D-----------------------------------
A-----------------------------------
E--00000000000----------------------


G----------------------------------
D----------------------------------
A-----33-55-33---------------------
E--00------------------------------X3

G-----------------------------------
D-----------------------------------
A-----------------------------------
E--00000000000----------------------

ESTRIBILLO
ESTROFA
ESTRIBILLO
FIN EN D
Suggest correction
Give kudos to tab author, rate the tab!
1 2 3 4 5
comments
print report bad tab
guest
You may want to rate the tab now too:
select rating
Wanna post a correction for this tab? Suggest correction